Song name
# A B C D E F G H I J K L M N O P Q R S T U V W X Y Z

Wintersleep - Clotting tab

First of all,

THIS SONG IS BY KARY

UG woudlnt let me put them as kary
so i put them down as the next closest thing


this is my favorite song ever
i didnt lay down the structure cause that takes time,
that for you to figure out

make sure you tune to drop c!

i only put the bare bones down, you can play this by making
the chords bigger and fuller, the ending you can go nuts with tremelo picking, etc. but 
you who just want the basic tab, here it is

if anything sounds wrong its probably cause i put it down wrong

enjoy


main riff

e-----------------------------------------|
b-----------------------------------------|
g-----------------------------------------|
d------------------------------7----0-----|
a--7-------7----7--------7--------7-------|
e----5---5---5----5---5-----5-----------5-|

   PM
e-----------------------------------------|
b-----------------------------------------|
g-----------------------------------------|
d---10-------------------------7----0-----|
a-----(repeat about 12? times)----7-------|
e---9----------------------------------5--|


e---------------|
b---------------|
g---------------|
d-10--3---7---9-|
a---------------|
e-9---2---5---7-|


e-----------------------------------|
b-----------------------------------|
g-----------------------------------|
d-----------------------------------|
a-----5-5-5-5-7-----5-5-5-5-7-7-7-7-|
e-9/------------9/------------------|


e--------------------------------------------|
b--------------------------------------------|
g--------------------------------------------|
d--------------------------------------------|
a---------5-5-5-5-7----------5-5-5-5-7-7-7-7-|
e-9/-0-0-------------9/-0-0------------------|

e----------------------------------------------------------------------------|
b----------------------------------------------------------------------------|
g----------------------------------------------------------------------------|
d---7-5-----7-5----------10-9-----------10-9--------------3-2----------3-2---|
a-------7--------7--------------10-------------10---------------3----------3-|
e-5-------5---------5\9--------------9---------------9/2------------2--------|


(end of riff)
d----7-5----5-7-|
a---------7-----|
e-5-------------|

e----------------------------------------------------------------------|
b----------------------------------------------------------------------|
g----------------------------------------------------------------------|
d-7-------7------7------7------10------10------10-----10---------------|
a----3\7-----3\7----3\7----3\7----3\7------3\7----3\7----3\7/5-----5---|
e-5-------5------5------5------9-------9-------9------9---------7------|

e---------------------------------------------------------|
b---------------------------------------------------------|
g--------------------------------12-12-12-12-14-14-14-14--|
d------7---7-7-7-7-7-7-7-7-7-----10-10-10-10-10-10-10-10--|
a---------------------------------------------------------|
e-5-5------5-5-5-5-5-5-5-5-5--9-9-9-9-9-9-9-9-9-9-9-9-9---|


end by quietly picking between f and a
Tap to rate this tab
 
# A B C D E F G H I J K L M N O P Q R S T U V W X Y Z