Song name
# A B C D E F G H I J K L M N O P Q R S T U V W X Y Z

Wintersleep - Archaeologists tab

Tuning: CADGBE

|-------------------------------------------------------------------------------------|
|-------------------------------------------------------------------------------------|
|--7p0h7p0h7p0h7p0h7p0h7p0h7p0h7p0--2p0h2p0h2p0h2p0-----------------------------------|
|--x--------------------------------0----------------9p0h9p0h9p0h9p0h9p0h9p0h9p0h9p0--|
|--7--------------------------------x----------------x--------------------------------|
|--0--------------------------------2----------------7--------------------------------|

|-----------------------------------------------------------------------------------------|
|-----------------------------------------------------------------------------------------|
|--7p0-----7p0-----7p0-----7p0------2p0-----2p0-------------------------------------------|
|--x-------x-------x-------x--------0---0-0-0---0-0--9p0-----9p0-----9p0-----9p0-----9p0--|
|--7---7-7-7---7-7-7---7-7-7---7-7--x---x-x-x---x-x--x---x-x-x---x-x-x---x-x-x---x-x-x----|
|--0---0-0-0---0-0-0---0-0-0---0-0--2---2-2-2---2-2--7---7-7-7---7-7-7---7-7-7---7-7-7----|
PM     . .     . .     . .     . .      . .     . .      . .     . .     . .     . .
Tap to rate this tab
 
# A B C D E F G H I J K L M N O P Q R S T U V W X Y Z