Song name
# A B C D E F G H I J K L M N O P Q R S T U V W X Y Z

Wintersleep - Orca tab

---------------------------------------------------------------------------
			     ORCA - Wintersleep
---------------------------------------------------------------------------
Tabbed by: Travis Ford
Email:travdor@gmail.com

Tuning: DADGBe (drop D)


Fairly easy song, gets a little sore at times but ah well, i am just going to put the 
basically then look to the bottom how to play it :)

C=Clean Guitar
D=Distorted Guitar

e|-------------------------------------|
B|-------------------------------------|
G|-------------------------------------|   =   C1
D|------------10----------10-----------|
A|--------7-----------7-----------7----|
D|-----7----------7-----------7--------|

e|-----------------|
B|-----------------|
G|-----------------|
D|-------------5---|   =  C2
A|---------3-------|
D|-----3-----------|


e|-------------------------------------|
B|--------------------------------------|
G|--------------------------------------|
D|--------------12--------12-----------|    =   C3
A|---------10----------10---------10---|
D|----10-----------10---------10-------|

e|-------------------|
B|-------------------|
G|-------------------|
D|---------------9---|  =  C4
A|----------7--------|
D|-----5-------------|


e|-----------------|
B|-----------------|
G|-----------------|   =   D1
D|---10------------|
A|---7---(echo)----|
D|---7-------------|


e|---------------------------------------------------------------|
B|---------------------------------------------------------------|
G|---------------------------------------------------------------|
D|--xx-10-xx--10-x-10-xx-10-5b--xx-10-xx--10-x-10-xx-10-12b------|  =  D2
A|--xx-7--xx--7--x-7--xx-7--3---xx-7--xx--7--x-7--xx-7--10-------|
D|--xx-7--xx--7--x-7--xx-7--3---xx-7--xx--7--x-7--xx-7--10-------|
(i also found it cool if you alternate between 7-7-10 and 7-7-9--|..i do it when on acoustic)


Okay now for ordering FUNNNN you might just want to do it by ear, but this is right so heck

C1 x  5
C2 x 1
C1 x 2
C2 x 1
C1 x 1
C2 x 1
C1 x 2
C2 x 1
C1 x 1
C2 x 1
C3 x 1
C4 x 1
C1 x 1
C2 x 1
C1 x 2
C1 x 1 + D1 x 1
C2 x 1
C1 x 2
C2 x 1
C1 x 1
C2 x 1
C1 x 2
C2 x 1
C1 x 1
C2 x 1
C3 x 1
C4 x 1
C1 x 1
C2 x 1
C1 x 2
C2 x 1
D2 x 2
C1 x 1
C2 x 1
C1 x 2
C2 x 1
C1 x 1
C2 x 1
C1 x 2
C2 x 1
C1 x 1
C2 x 1
C3 x 1
C4 x 1
C1 x 1
C2 x 1
C1 x 2
C2 x 1
D2 x 4
Bass at the end


| /  slide up
| \  slide down
| h  hammer-on
| p  pull-off
| ~  vibrato
| +  harmonic
| x  Mute note
| b  Bend note
=============================================================
Tap to rate this tab
 
# A B C D E F G H I J K L M N O P Q R S T U V W X Y Z