Song name
# A B C D E F G H I J K L M N O P Q R S T U V W X Y Z

Wintersleep - A Long Flight tab

Band: Wintersleep
Song: A Long Flight
Album: Wintersleep (2005)

Tabbed by Joey Taylor
email - joey_taylor23@hotmail.com


I tabbed this song in regular tuning but for you people who want to play it the real way 
it is. after the picking part when it speeds up strum these chords and tremelo pick in 
background.

e --------------------------------------------------------------|
B --------------------------------------------------------------|
G --12------------12------------12------------12----------------|
D -------9-------------9-------------9-------------9------------|
G --9---------9---9---------9---9---------9---9--------9--------|
C --------------------------------------------------------------|

e --------------------------------------------------------------|
B --------------------------------------------------------------|
G --9------------9-------------9------------9-------------------|
D ------5-------------5-------------5------------5--------------|
G --5--------5---5---------5---5--------5---5---------5---------|
C --------------------------------------------------------------|

e --------------------------------------------------------------|
B --------------------------------------------------------------|
G --11------------11------------11------------7-----------------|
D -------7-------------7-------------7-------------7------------|
G --7---------7---7---------7---7---------7---7---------7-------|
C --------------------------------------------------------------|

e --------------------------------------------------------------|
B --------------------------------------------------------------|
G --12------------12------------12------------11----------------|
D -------9-------------9-------------9-------------9------------|
G --9---------9---9---------9---9---------9---9----------9------|
C --------------------------------------------------------------|
Tap to rate this tab
# A B C D E F G H I J K L M N O P Q R S T U V W X Y Z