Song name
# A B C D E F G H I J K L M N O P Q R S T U V W X Y Z

Wintersleep - Drunk On Aluminum tab

here is paul's part....some of it anyway.
standard

e-----------------------------------------|
b-----------------------------------------|
g------------------------0----------------|
d------------------------0----------0-----|
a-------12----10----9---------------10----|
E-12--------------------------10----------|


bridge/heavy part

e-----------------------------------------|
b-----------------------------------------|
g-----------------------------------------|
d-----------------------------------------|
a-10101010101010-101010101010-------------|
E-10121212121212-101010101010-------------|

that is all i've got....i know the intro is 100% right...not too sure about this second part.
Tap to rate this tab
 
# A B C D E F G H I J K L M N O P Q R S T U V W X Y Z