Guitaretab - guitar tabs
Song name
# A B C D E F G H I J K L M N O P Q R S T U V W X Y Z

Wintersleep - Search Party tab

all parts should be repeated as necessary

main riff (delay and reverb)
e|--------------------------|
B|--------------------------|
G|---9--------9-------------|(each note holds for a long time)
D|-----10-------7-----------|
A|--------------------------|
E|--------------------------|

[ Tab from: http://www.guitaretab.com/w/wintersleep/98439.html ]
distortion part
e|---------------------------------------|
B|---------------------------------------|
G|-----------------------9-9-9-9---------|
D|---10-10-10-10-7-7-7-7---------7------9|
A|---------------------------------------|
E|---------------------------------------|

synth part (not sure about this)
e|-----------------------------|
B|--------8-----8------8-------|
G|----9-------7---2------7-----|(each note holds for a long time)
D|-----------------------------|
A|-----------------------------|
E|-----------------------------|

Related for Search Party tab
×
Search Party