Song name
# A B C D E F G H I J K L M N O P Q R S T U V W X Y Z

Winterstasie - Outokrasie Van Die Hart tab

Outokasie van die Hart => Winterstasie
          BY
*******kronos451********

www.winterstasie.co.za

Tuning: DROP D, BASS is STANDARD.


THIS SONG IS PER THE ARTIST'S INTERPRETATION OF IT FROM THE ALBUM. IT
IS NOT INTENDED FOR PUBLIC USE UNLESS YOU HAVE WRITTEN PERMISSION
FROM THE ARTIST ITSELF.


This truly is one of the most beautiful guitar pieces i've ever tabbed.
Although it might look confusing, it isnt that difficult. Enjoy!


MAIL ME AT: kronos451@gmail.com


LEGEND:
~ - Slide to
r - Ring
x - Palm Mute


*****THE SONG'S STRUCTURE IS INDICATED BELOW*****.


INTRO/VERSE: GUITAR 1

E-4---0---0---4---0---0---5---2-----|
B---2---2---2---2---2---2---2---2---|
G-----------------------------------|
D-----------------------------------|
A-----------------------------------|
D-----------------------------------|


INTRO/VERSE: GUITAR 2


E-12-11----12-11----12-11----12-11----14----11----|
B-------12-------12-------12-------12----12----12-|
G-------------------------------------------------|
D-------------------------------------------------|
A-------------------------------------------------|
D-------------------------------------------------|


VERSE 1 & 2: BASS


G-------------------------------------------------------------------|
D-------------------------------------------------------------------|
A-------------------------------------------------------------------|
E-0~5-5-5-5-5-5-5-5-5-5-5-5-5-5-5-5~9-9-9-9-9-9-9-9-0-0-0-0-0-0-0-0-|


PRECHORUS(BUILDUP): GUITAR 1


E-------------------------------------------------|
B-------------------------------------------------|
G-------------------------------------------------|
D-x2-x2-x2-x2-x2-x2-x2-x2-x2-x2-x2-x2-x2-x2-x2-x2-|
A-x2-x2-x2-x2-x2-x2-x2-x2-x2-x2-x2-x2-x2-x2-x2-x2-|
D-x2-x2-x2-x2-x2-x2-x2-x2-x2-x2-x2-x2-x2-x2-x2-x2-|


CHORUS:GUITAR 1


E-----------------------------------------------------------------|
B-----------------------------------------------------------------|
G-----------------------------------------------------------------|
D-5-5-5-5-5-5-5-5-5-5-5-5-5-5-5-5-7-7-7-7-7-7-7-7-7-7-7-7-7-7-7-7-|
A-5-5-5-5-5-5-5-5-5-5-5-5-5-5-5-5-7-7-7-7-7-7-7-7-7-7-7-7-7-7-7-7-|
D-5-5-5-5-5-5-5-5-5-5-5-5-5-5-5-5-7-7-7-7-7-7-7-7-7-7-7-7-7-7-7-7-|


E-----------------------------------------------------------------|
B-----------------------------------------------------------------|
G-----------------------------------------------------------------|
D-9-9-9-9-9-9-9-9-9-9-9-9-9-9-9-9-9-9-9-9-9-9-9-9-9-9-9-9-9-9-9-9-|
A-9-9-9-9-9-9-9-9-9-9-9-9-9-9-9-9-9-9-9-9-9-9-9-9-9-9-9-9-9-9-9-9-|
D-9-9-9-9-9-9-9-9-9-9-9-9-9-9-9-9-9-9-9-9-9-9-9-9-9-9-9-9-9-9-9-9-|


E-----------------------------------------------------------------|
B-----------------------------------------------------------------|
G-----------------------------------------------------------------|
D-5-5-5-5-5-5-5-5-5-5-5-5-5-5-5-5-7-7-7-7-7-7-7-7-7-7-7-7-7-7-7-7-|
A-5-5-5-5-5-5-5-5-5-5-5-5-5-5-5-5-7-7-7-7-7-7-7-7-7-7-7-7-7-7-7-7-|
D-5-5-5-5-5-5-5-5-5-5-5-5-5-5-5-5-7-7-7-7-7-7-7-7-7-7-7-7-7-7-7-7-|

E--------------------------------------------------------------------|
B--------------------------------------------------------------------|
G--------------------------------------------------------------------|
D-4-4-4-4-4-4-4-4-4-4-4-4-0-0-0-0-5-5-5-5-5-5-5-5-5-5-5-5-5-5-5-5-r7-|
A-4-4-4-4-4-4-4-4-4-4-4-4-0-0-0-0-5-5-5-5-5-5-5-5-5-5-5-5-5-5-5-5-r7-|
D-4-4-4-4-4-4-4-4-4-4-4-4-0-0-0-0-5-5-5-5-5-5-5-5-5-5-5-5-5-5-5-5-r7-|


CHORUS: GUITAR 2 (Part 1)


E-------------------------------------|
B-0-0-0-0-0-0-0-0--0--0--0--0-0-0-0-0-|
G-9-9-9-9-8-8-8-8-11-11-11-11-8-8-8-8-|
D-------------------------------------|
A-------------------------------------|
D-------------------------------------|

E---------------------------------|
B-0-0-0-0-0-0-0-0-0-0-0-0-0-0-0-0-|
G-9-9-9-9-8-8-8-8-4-4-4-4-1-1-1-1-|
D---------------------------------|
A---------------------------------|
D---------------------------------|


CHORUS: GUITAR 2 (Part 2)


E-12-12-12-12-11-11-11-11-14-14-14-14-11-11-11-11-|
B--0--0--0--0--0--0--0--0--0--0--0--0--0--0--0--0-|
G-------------------------------------------------|
D-------------------------------------------------|
A-------------------------------------------------|
D-------------------------------------------------|

E-12-12-12-12-11-11-11-11-7-7-7-7-4-4-4-4-|
B--0--0--0--0--0--0--0--0-0-0-0-0-0-0-0-0-|
G-----------------------------------------|
D-----------------------------------------|
A-----------------------------------------|
D-----------------------------------------|


VERSE 2: GUITAR 1 (PICK)


E---0--0--0--0--0--0--0--0-0-0-0-0-0-0-0-0-0-0-0-0-0-0-0--|
B-12-12-12-12-12-10-9--10-9-9-9-9-7-7-9-9-5-5-5-5-4-4-5-5-|
G---------------------------------------------------------|
D---------------------------------------------------------|
A---------------------------------------------------------|
D---------------------------------------------------------|


E---0--0--0--0-0-0-0--r0-|
B-12-12-12-12-7-7-9-9-r5-|
G------------------------|
D------------------------|
A------------------------|
D------------------------|


VERSE 2: GUITAR 2 (PICK)


E----0---11--12--11-|
B--12--12--12--12---|
G-------------------|
D-------------------|
A-------------------|
D-------------------|


BRIDGE: GUITAR 1 (Part 1)

E--------------------------------------------------|
B--------------------------------------------------|
G--------------------------------------------------|
D-x4-x4-x4-x4-x4-x4-x4-x4-x4-x4-x4-x4-x0-x0-x0-x0--|
A-x4-x4-x4-x4-x4-x4-x4-x4-x4-x4-x4-x4-x0-x0-x0-x0--|
D-x4-x4-x4-x4-x4-x4-x4-x4-x4-x4-x4-x4-x0-x0-x0-x0--|


E--------------------------------------------------|
B--------------------------------------------------|
G--------------------------------------------------|
D-x5-x5-x5-x5-x5-x5-x5-x5-x5-x5-x5-x5-x5-x5-x5-x5--|
A-x5-x5-x5-x5-x5-x5-x5-x5-x5-x5-x5-x5-x5-x5-x5-x5--|
D-x5-x5-x5-x5-x5-x5-x5-x5-x5-x5-x5-x5-x5-x5-x5-x5--|


BRIDGE: GUITAR 1 (Part 2)


E-------------------------------------------------|
B-------------------------------------------------|
G-------------------------------------------------|
D-x9-x9-x9-x9-x9-x9-x9-x9-x9-x9-x9-x9-x9-x9-x9-x9-|
A-x9-x9-x9-x9-x9-x9-x9-x9-x9-x9-x9-x9-x9-x9-x9-x9-|
D-x9-x9-x9-x9-x9-x9-x9-x9-x9-x9-x9-x9-x9-x9-x9-x9-|


E---------------------------------------------------|
B---------------------------------------------------|
G---------------------------------------------------|
D-x7-x7-x7-x7-x7-x7-x7-x7-x7-x7-x7-x7-x7-x7-x7-x7---|
A-x7-x7-x7-x7-x7-x7-x7-x7-x7p-x7-x7-x7-x7-x7-x7-x7--|
D-x7-x7-x7-x7-x7-x7-x7-x7-x7-x7-x7-x7-x7-x7-x7-x7---|


E-------------------------------------------------|
B-------------------------------------------------|
G-------------------------------------------------|
D-x5-x5-x5-x5-x5-x5-x5-x5-x5-x5-x5-x5-x5-x5-x5-x5-|
A-x5-x5-x5-x5-x5-x5-x5-x5-x5-x5-x5-x5-x5-x5-x5-x5-|
D-x5-x5-x5-x5-x5-x5-x5-x5-x5-x5-x5-x5-x5-x5-x5-x5-|


E----------------------------|
B----------------------------|
G----------------------------|
D-x7-x7-x7-x7-x7-x7-x7-x7-r7-|
A-x7-x7-x7-x7-x7-x7-x7-x7-r7-|
D-x7-x7-x7-x7-x7-x7-x7-x7-r7-|


BRIDGE: GUITAR 2


E-12-11----12-11----12-11----12-11----14----11----|
B-------12-------12-------12-------12----12----12-|
G-------------------------------------------------|
D-------------------------------------------------|
A-------------------------------------------------|
D-------------------------------------------------|


******************STRUCTURE*********************

*NOTE* THIS GUIDELINE IS SEQUENTIAL, YOU MUST HAVE THE SONG
WITH YOU TO FULLY UNDERSTAND THE TRANSITIONS HERE.


(Intro verse Guitar 1 does 1 bar,then intro/verse guitar 2 falls in)

(Both goes on until the Buildup after verse 1)


=>Verstand, kan nie regtig keer...
....volg jou droom, en kyk na bo

(At this point Guitar 2 is silent, Guitar 1 Does the Buildup)

(Both Guitars Fall in at the same time for the chorus, Guitar 2
plays part 1 twice and then part 2 twice)

*Eks lief vir jou en jy...
...Vertrou op liefde

(Guitar 1 does the Buildup again, with guitar 2 playing
its intro pick about twice)

(Verse 2 pick by guitar 1, and after 1 bar guitar 2
also falls in with Verse 2 Guitar 2)

=>Die lig, skyn helder deur jou oe...
...byt net vas.

(CHORUS AGAIN)

(Breakdown is pretty straighforward. Guitar 2 falls in after
the 4th bar)

(CHORUS)

(FIGURE THE OUTRO OUT FOR YOURSELF, COULDNT HEAR WHAT CHORDS
WERE PLAYED THERE)
Tap to rate this tab
# A B C D E F G H I J K L M N O P Q R S T U V W X Y Z