Song name
# A B C D E F G H I J K L M N O P Q R S T U V W X Y Z

Wintersun - Sadness And Hate tab

                   Tabbed by: Sinjin Wheatley
                     sadness and hate: by Wintersun
                      



e|-----------------------------------------|
B|-----------------------------------------|
G|-----------------------------------------|
D|-----5-----------5/7-5-------5-----------|
A|-7-8---8-7-5-4-5-------8-7-8---8-7-5-4-5-|
E|-----------------------------------------|

e|---------------------------------------|
B|---------------------------------------|
G|---------------------------------------|
D|-----5-----------5/7-5-------5---------|
A|-7-8---8-7-5-4-5-------8-7-8---8-7-4-5-|
E|---------------------------------------|

e|----------------------------------|
B|----------------------------------|
G|----------------------------------|
D|---------7-5-------5-7---5--------|
A|-4-5-7-5-----8-7-8-----8---8--4-5-|
E|----------------------------------|

e|-----------------------------------------|
B|-----------------------------------------|
G|-----------------------------------------|<[rhythm over lead]
D|-----------------------------------------|  [note]-there are various
A|-2~-2222--5-7-4~--7957542~-2222222-------|versions of the chugging |-222-|
E|-0~-0000--3-5-2~--5735320~-0000000-------|through out the song.    |-000-|
      ....                   .......                                   ...
        

e|-----------------------------------|
B|-----------------------------------|
G|-----------------------------------|
D|----------5------------------------|
A|-4-5--7-8---8-7-8--5-7-8-5-7-5-4-5-|
E|-----------------------------------|


e|-----------|-----------|-----------|-----------|
B|-----------|-----------|-----------|-----------|
G|-----------|-----------|-----------|-----------|
D|-----------|-----------|-----------|-----------|
A|-8-8-7-5-7-|-8-8-7-5-7-|-7-7-5-4-5-|-7-7-5-4-5-|
E|----------------------|-----------|-----------|

e|-------|-------|--------|-------|------------------|
B|-8-87--|-8-87--|--7-7---|-7-7---|-7810-87-787--87~-|
G|-----99|-----99|-----977|----977|--------9---97----|
D|-------|-------|--------|-------|------------------|
A|-------|-------|--------|-------|------------------|
E|-------|-------|--------|-------|------------------|


e|-----------------------------------------------|
B|-----------------------------------------------|
G|-----------------------------------------------|
D|-----------------------------------------------|
A|-2~-7~-5~-4~--2~-7~-7535~----------------------|
E|-0~-5~-3~-2~--0~-5~-5313~----------------------|

then comes the little folk-ish interlude.

e|-----------------------------------------------|
B|-----------------------------------------------|
G|-----------------------------------------------|
D|-------------------9-7-9-----------------------|
A|-7--9-10-9--7-5-7-------9--7-9-10-9-10-12~-----|
E|-----------------------------------------------|

e|-----------------------------------------------|
B|-----------------10-8-10-----------------------|
G|-7-9-10-9--7-5-7---------9--7-9-10-9-10-12~----|
D|-----------------------------------------------|
A|-----------------------------------------------|
E|-----------------------------------------------|

e|------------|-------------|----------------------|
B|------------|-------------|----------------------|
G|------------|-------------|----------------------|
D|-2-235-320-0|--2-235-75357|-2-235-320-0--0-02-0--|
A|----------3-|-------------|----------3-------3---|
E|------------|-------------|----------------------|

its not the full thing, i'll finish the rest later. probably not 100% correct, but 
it will give people an idea on where to start if they want to tab it out themselves.

- Enjoi!!!!!!!!

Tap to rate this tab
 
# A B C D E F G H I J K L M N O P Q R S T U V W X Y Z