Wintersun - Beyond The Dark Sun tab

-------------------------------------------------------------------------------
			    Wintersun - Beyond The Dark Sun
-------------------------------------------------------------------------------
Tabbed by: Markus Rafferty
Email: stairsleadingup@gmail.com

seen every other tab on here.. they were all wrong, this is 99% if not 100% 
accurate. will update the rest asap, this is what i have so far.


	use flanger effect 
e|---------------/------/--------/-------------------------------------------|
B|-----/---------/------/--------/-------------------------------------------|
G|-10--/--9-7-9--/--12--/--10-9--/-------------------------------------------|
D|-----/---------5------8-------10-------------------------------------------|
A|-----5---------------------------10-8-7---8-7------------------------------|
E|----------------------------------------5----------------------------------|
       x         x      x        x

e|-------------------10-13-/15-12----------------12--17-13-----------------18|
B|----------------10--------------13----------13-----------15----------15----|
G|-------------10--------------------14----14-----------------14----14-------|
D|----------12--------------------------17-----------------------15----------|
A|-------12------------------------------------------------------------------|
E|-10-13---------------------------------------------------------------------|
    x  x  x  x

e|-15----------------15--17-13----------------13--15-12----------------12--17|
B|----15----------15-----------15----------15-----------14----------14-------|
G|-------15----15-----------------14----14-----------------15----15----------|
D|----------19-----------------------15-----------------------17-------------|
A|---------------------------------------------------------------------------|
E|---------------------------------------------------------------------------|

                           ~
e|-13----------------12-\10--------------------------------------------------|
B|----13----------13---------------------------------------------------------|
G|-------14----14------------------------------------------------------------|
D|----------15---------------------------------------------------------------|
A|---------------------------------------------------------------------------|
E|---------------------------------------------------------------------------|

Tap to rate this tab
 
# A B C D E F G H I J K L M N O P Q R S T U V W X Y Z