Song name
# A B C D E F G H I J K L M N O P Q R S T U V W X Y Z

Wintersun - Sadness And Hate tab

e-----------------------------------------------------|
b-----------------------------------------------------|
g------0-----------2-0-------0------------------------|
d--2-3---3-2-0---0-----3-2-3---3-2-0---0------------x4|
a--------------4---------------------4----------------|
e-----------------------------------------------------|


e------------------5--------------------------------5-----------5----------|
b--5-6-8-6-5---------8-6--5-6-8-6-5-------------5-6---8-6-5-6-8---6-8-6-5--|
g------------7-6-7------------------6-7----7-6-7-------------------------7-|
d--------------------------------------------------------------------------|
a--------------------------------------------------------------------------|
e--------------------------------------------------------------------------|


e-------------------5-------------------------------------5----5------------|
b--5-6-8-6-5-----6-8-8-6--5-6-8-6-5-------------5--6-5-6-8--6-8-6-8-6-5-----|
g------------7-6--------------------6-7---7-6-7-------------------------7---|
d---------------------------------------------------------------------------|
a---------------------------------------------------------------------------|
e---------------------------------------------------------------------------|


e------------------5--------------------------------5-----------5----------|
b--5-6-8-6-5---------8-6--5-6-8-6-5-------------5-6---8-6-5-6-8---6-8-6-5--|
g------------7-6-7------------------6-7----7-6-7-------------------------7-|
d--------------------------------------------------------------------------|
a--------------------------------------------------------------------------|
e--------------------------------------------------------------------------|


e--12-13-15-13-12-----------17-15-13---12-13-15-13-12-----------------------|
b-----------------15-14-15-----------------------------14-15----------------|
g---------------------------------------------------------------------------|
d---------------------------------------------------------------------------|
a---------------------------------------------------------------------------|
e---------------------------------------------------------------------------|


e-----------12-13-17-15-13-12-13-15-17-13-15-13-12-------------------------|
b--15-14-15----------------------------------------15----------------------|
g--------------------------------------------------------------------------|
d--------------------------------------------------------------------------|
a--------------------------------------------------------------------------|
e--------------------------------------------------------------------------|


e----------------------------------------------------|
b----------------------------------------------------|
g----------------------------------------------------|
d----------------------------------------------------|
a----------------------------------------------------|
e----------------------------------------------------|
rrrrrrrrrrrrrrr...............



e----------------------------------------------------------------------|
b---6-6-5-3-5-6---5-3-6--5-5-3---3-5--3-5-6-6-5-3-5-6-5-3-6-5-3-5-3----|
g------------------------------5-------5-----------------------5-------|
d----------------------------------------------------------------------|
a----------------------------------------------------------------------|
e----------------------------------------------------------------------|

Have a nice plaing!
Tap to rate this tab
 
# A B C D E F G H I J K L M N O P Q R S T U V W X Y Z