Song name
# A B C D E F G H I J K L M N O P Q R S T U V W X Y Z

Wintersun - Time tab

Wintersun  - Time
Tabbed by Lorcan Ward(Tapping part tabbed by Ciaran Ryan)
Solo starts at 6:17
D Standard Tuning

Check out my guitar cover:
http://www.youtube.com/watch?v=JOEfzFsYKEk

Contact me at:
https://www.facebook.com/LorcanWardGuitar

|----------------------------------------------------------------|
|----------------------------------------------------------------|
|--12~~-----12~---14b15--br15---14/15----------------------------|
|----------------------------------------12--12\10---------------|
|---------------------------------------------------13-10-12-13--|
|----------------------------------------------------.--.--.--.--|

|------------15-17-17b18--(18)r17p15--------------------------------------18---|
|-------------------------------------18\13---------------------------18-------|
|--12-14-15-------------------------------------------------------17-----------|
|---------------------------------------------20--------------20---------------|
|-------------------------------------------------20------20-------------------|
|-----------------------------------------------------18-----------------------|

|--20b22r20b22r20--20--p18p17--------------------------------------------------------|
|-----------------------------18p17--------------------------------------------------|
|------------------------------------19p17\14~---12p10-------------------------------|
|-------------------------------------------------------12p10------------------------|
|--------------------------------------------------------------12p10\8------PH-------|
|-----------------------------------------------------------------------10--8~~~--\--|

|-------------------------------------------------------------------|
|------------------------------h8t15p8h11t18p11p8-------------------|
|-------------------h10t15p10----------------------h10t15p10--------|
|----------h8t15p8-----------------------------------------h8t15p8--|
|--t13p10-----------------------------------------------------------|
|-------------------------------------------------------------------|

|-------------------------------------------------------------------------|
|--------------------------------h8t15p8h11t18p11p8-----------h8t15p8h11--|
|----------------------h10t15p10--------------------h10t15p10-------------|
|-------------h8t15p8-----------------------------------------------------|
|--h10t13p10--------------------------------------------------------------|
|-------------------------------------------------------------------------|

|--------------------------------------------Pick Slide---------------|
|--t17p8h10-t14p10p8-t17p10p8-t20p8h10--t22--/-/--/-------------------|
|--------------------------------------------/-/--/-------------------|
|---------------------------------------------------------------------|
|---------------------------------------------------------------------|
|-----------------------------------------------------------17\--\----|

|-----------------------------------------------------------------------------|
|-------------------------------------------------------------15--14--15--17--|
|---------------------------------------------------------14------------------|
|-----------------12--15--14~~--12-----11--14--15--14--15---------------------|
|-------------12-------------------12-----------------------------------------|
|--13--10--13-----------------------------------------------------------------|

|--------13-15-17-15-13-12-15-13-12-10-13-12-10-9------------|
|--15-17-----------------------------------------------------|
|--------------------------------------------------15-14-12--|
|------------------------------------------------------------|
|------------------------------------------------------------|
|------------------------------------------------------------|

|--------------------------------------------|
|--------------------------------------------|
|--10-14-12-10-9-12-10-9-7-10-9-7-6-7~~~-----|
|--------------------------------------------|
|--------------------------------------------|
|--------------------------------------------|

|-----------------------13-17p13----------------13-17----17--15--17----------18/21b22~~~~-|
|--------------------15----------15----------15----------------------18--17---------------|
|--------------10/14----------------14----14----------------------------------------------|
|----------12--------------------------15-------------------------------------------------|
|-------12--------------------------------------------------------------------------------|
|-10h13-----------------------------------------------------------------------------------|
Tap to rate this tab
# A B C D E F G H I J K L M N O P Q R S T U V W X Y Z