Guitaretab - guitar tabs
Song name
# A B C D E F G H I J K L M N O P Q R S T U V W X Y Z

Wintersun - Sadness And Hate tab

sprry for the mistake i made, i stuffed up my first sadness and hate tab...to make it up 
ya'll i made it incredebly better.
Have Fun! :)
tuning: eBGDAE

  This bit goes four times before turninup the disortion.
e|-----------------------------------------|
B|-----------------------------------------|
G|-----------------------------------------|
D|-----5-----------5/7-5-------5-----------|
A|-7-8---8-7-5-4-5-------8-7-8---8-7-5-4-5-|
E|-----------------------------------------|
from here...
e|---------------------------------------|
B|---------------------------------------|
G|---------------------------------------|
D|-----5-----------5/7-5-------5---------|
A|-7-8---8-7-5-4-5-------8-7-8---8-7-4-5-|
E|---------------------------------------|

e|----------------------------------|
B|----------------------------------|
G|----------------------------------|
D|---------7-5-------5-7---5--------|
A|-4-5-7-5-----8-7-8-----8---8--4-5-|
E|----------------------------------|
[ Tab from: http://www.guitaretab.com/w/wintersun/73210.html ]
e|-----------------------------------------|
B|-----------------------------------------|
G|-----------------------------------------|
D|-----5-----------5-----------5-----------|
A|-7-8---8-7-5-4-8---8-7-8-7-8---8-7-5-4-5-|
E|-----------------------------------------|

e|-----------------------------------|
B|-----------------------------------|
G|-----------------------------------|
D|----------5------------------------|
A|-4-5--7-8---8-7-8--5-7-8-5-7-5-4-5-|
E|-----------------------------------|
...To here you do this whole thing 2 times all up :)

e|-----------|-----------|-----------|-----------|
B|-----------|-----------|-----------|-----------|
G|-----------|-----------|-----------|-----------|
D|-----------|-----------|-----------|-----------|
A|-8-8-7-5-7-|-8-8-7-5-7-|-7-7-5-4-5-|-7-7-5-4-5-|
E|-----------|-----------|-----------|-----------|
Does this...and then i need to figure out the next bit sorry :(
But i will figure this bit out i promise ^o-...

Yours truly...''silent breath''...
Related for Sadness And Hate tab