Song name
# A B C D E F G H I J K L M N O P Q R S T U V W X Y Z

Wintersun - Death And The Healing tab

Iv'e gotten pretty far in this song, as in a already tabbed a bit of the solo.
Now i'll show you my version of this kick ass song :)
Tuning: eBGDAE

This bit(from here...)
e|-----------------------------|
B|-9-8-------8-11-9-8----------|
G|-----10-------------10-------|
D|--------10-------------10----|
A|--------------------------11-|
E|-----------------------------|

e|----------8----|----------8---|
B|-11----11---11-|-11----11---8-|
G|----10---------|----10--------|
D|---------------|--------------|
A|---------------|--------------|
E|---------------|--------------|
(to here...I will just call the 1st bit ok?)
1st bit goes 6 times before changing to second bit...

And this can be 2nd bit\/
e|-------------/----------------|-------------/----------8------|
B|-9-8---------/-9-8-9-11-9-8---|-9-8---------/-9-8-9-11---11-8-|
G|-----10----8-/--------------8-|-----10----8-/-----------------|
D|--------10---/----------------|--------10---/-----------------|
A|-------------/----------------|-------------/-----------------|
E|-------------/----------------|-------------/-----------------|
And 2nd bit goes for 2 times
(then 1st bit again)x4
e|-----------------------------|
B|-9-8-------8-11-9-8----------|
G|-----10-------------10-------|
D|--------10-------------10----|
A|--------------------------11-|
E|-----------------------------|

e|----------8----|----------8---|
B|-11----11---11-|-11----11---8-|
G|----10---------|----10--------|
D|---------------|--------------|
A|---------------|--------------|
E|---------------|--------------|

Then this bit can be called 3rd bit\/
e|----------------------------------|
B|-12-11-------11-14-12-11----------|
G|-------13----------------13-------|
D|----------13----------------13----|
A|-------------------------------14-|
E|----------------------------------|

e|----------11----|----------11----|
B|-14----14----14-|-14----14----11-|
G|----13----------|----13----------|
D|----------------|----------------|
A|----------------|----------------|
E|----------------|----------------|
And this goes x4 before going to 4th bit...

Then this is 4th bit:) \/
e|-----------------/----------------------|
B|-12-11-----------/-12-11-12-14-12-11----|
G|-------13----11--/-------------------11-|
D|----------13-----/----------------------|
A|-----------------/----------------------|
E|-----------------/----------------------|

e|-----------------/-------------11-------|
B|-12-11-----------/-12-11-12-14----14-11-|
G|-------13----11--/----------------------|
D|----------13-----/----------------------|
A|-----------------/----------------------|
E|-----------------/----------------------|
Which 4th bit goes 2 times before this acoustic picking bit...

This is really fast...+ i only got the rhythm guitar but it still sounds the same
just not as good, but bare with me :)
bar chords ofcourse.   |st chord\/|2nd one\/ |3rd one(Cmajor)
e|---------------------|-10-------|-8--------|-8------|
B|---------------------|-10-11----|-8-10-----|-8------|
G|-(first ill give-----|-10----12-|-8-10-----|-8-9----|
D|--you the chords-----|-10----12-|-8-10-----|-8---10-|
A|--to make it easier)-|-10-------|-8--------|-8---10-|
E|---------------------|**********|**********|-8------|

Now to the picking)>HAVE FUN!
1st Chord!
e|----------------------------------------------------------|
B|----------11----------------11----------------11----------|
G|-------12----12----------12----12----------12----12-------|
D|----12----------12----12----------12----12----------12----|
A|-10----------------10----------------10----------------10-|
E|----------------------------------------------------------|
2nd Chord!
e|-------------------------------------|
B|---------10---------------10---------|
G|------10----10---------10----10------|
D|---10----------10---10----------10---|
A|-8----------------8----------------8-|
E|-------------------------------------|
3rd Chord!(easiest)
e|------|
B|----8-|
G|------|
D|------|
A|------|
E|-8----|<<
                        
                    
Tap to rate this tab
 
# A B C D E F G H I J K L M N O P Q R S T U V W X Y Z