Song name
# A B C D E F G H I J K L M N O P Q R S T U V W X Y Z

Wintersun - Battle Against Time tab

                      Hello everybody!

                              This is a great song!

                   Wintersun is the greatest band in the world!

  Intro      0.00-0.20
e|-------------------------------------------------------------------------|
B|-------------------------------------------------------------------------|
G|--10-----9-----7---------------------------------------------------------|
D|-----7-7---7-7---7-7-10----9-----7-----12----10----12----8-----7---------|
A|-----------------------7-7---7-7---7-7---8-8---8-8---8-8---5-5---5-5-----|
E|-------------------------------------------------------------------------|
       . .   . .   . .   . .   . .   . .   . .   . .   . .   . .   . .
e|-------------------------|
B|-------------------------|
G|---9-7-9-----------------|
D|-------------------------|
A|-------------------------|
E|-------------------------|

e|-------------------------------------------------------------------------|
B|-------------------------------------------------------------------------|
G|--10-----9-----7-----------------------------9-----10--------------------|
D|-----7-7---7-7---7-7-10----9-----7-----12----------------12----10--------|
A|-----------------------7-7---7-7---7-7---8-8---8-8---8-8---1010--10------|
E|-------------------------------------------------------------------------|
       . .   . .   . .   . .   . .   . .   . .   . .   . .   . .   . 
e|-------------------------|
B|-------------------------|
G|---12-14-12-14-----------|
D|-------------------------|
A|-------------------------|
E|-------------------------|
          all this 2 times  



                     
                                   From Alx
Tap to rate this tab
# A B C D E F G H I J K L M N O P Q R S T U V W X Y Z