Guitaretab - guitar tabs
Song name
# A B C D E F G H I J K L M N O P Q R S T U V W X Y Z

Wipers - Ready Or Not tab

Ready Or Not
Greg Sage
Sacrifice (For Love)

(Verse)
E--------------------------------------
B--------------------------------------
G--------------------------------------
D--7-------7-------7----5---------5----
A--7-------7-------7----5----7----5----
E----------------------------7---------

(Chorus)
E--------------------------------------------------------------------
B--------------------------------------------------------------------
G--5-----------------------------------------------------------------
D--5------------7-----------------7-------7-------7----5--------5----
A--3------------7-----------------7-------7-------7----5---7----5----
E---------------5------------------------------------------7---------
     Ready or  not, it's ready to roll
[ Tab from: http://www.guitaretab.com/w/wipers/130329.html ]
E--------------------------------------------------------------------
B--------------------------------------------------------------------
G--5-----------------------------------------------------------------
D--5------------7-----------------7-------7-------7----5--------5----
A--3------------7-----------------7-------7-------7----5---7----5----
E---------------5------------------------------------------7---------
     Ready or  not, don't let me go...yeah

Do you believe in magic?
Do you believe in fate?
Besides a beating heart...
Or does it even matter child?

Oh, ready or not, it's ready to roll
Ready or not, don't let me go...yeah.

Well move a little closer
I'm gonna tell you a tale
Besides my beating heart breaks...
Because you really shot me down...

Oh, ready or not, it's ready to roll
Ready or not, don't let me go...yeah

Solo:

Part 1 (3x)                       Part 2 (2x)

E---------------------------------|-------------------------------------------
B------5--7--7-^-7--5-----5-------|--5--7-^-7--5-5-----5-5--------7-7---------
G------5--7--7-^-7--5-----5-------|--5--7-^-7--5-5-----5-5--------7-7---------
D--5-------------------7-----7----|-----------------7-------7--5-------5-5-7--
A--5-------------------7-----7----|-----------------7-------7--5-------5-5-7--
E--7------------------------------|-------------------------------------------

I will finish the solo eventually. If you know it, email me at johnsixkiller.com!
Related for Ready Or Not tab
×
Ready Or Not