Song name
# A B C D E F G H I J K L M N O P Q R S T U V W X Y Z

Wipers - Over The Edge tab

Artist: Wipers
Song: "Over the Edge"
Album: Over the Edge (1983)


Standard Tuning


Intro
E---------------------------------------|
B---------------------------------------|
G---------------------------------------|
D---------------------------------------|
A-7--7--7--7--7--7--7--7--7--7--7--7--7-|
E-0--0--0--0--0--0--0--0--0--0--0--0--0-|


Chorus Riff
E------------------------------------------------|
B------------------------------------------------|
G-10-10-10---------------------------------------|
D-10-10-10---------------------------------------|
A-8--8--8--8-h10-10-10-8-h10-10-10-8-h10-10-10-10|
E----------8--8--8--8--8--8--8--8--8--8--8--8--8-|
+
E------------------------------------------------|
B------------------------------------------------|
G-7--7--7----------------------------------------|
D-7--7--7----------------------------------------|
A-5--5--5--5-h7--7--7--5-h7--7--7--5-h7--7--7--7-|
E----------5--5--5--5--5--5--5--5--5--5--5--5--5-|
+
E------------------------------------------------|
B------------------------------------------------|
G-10-10-10---------------------------------------|
D-10-10-10---------------------------------------|
A-8--8--8--8-h10-10-10-8-h10-10-10-8-h10-10-10-10|
E----------8--8--8--8--8--8--8--8--8--8--8--8--8-|
+
E--------------------------------------------------------|
B--------------------------------------------------------|
G-7--7--7------------------------------------------------|
D-7--7--7------------------------------------------------|
A-5--5--5--5-h7--7--7--5-h7--7--7--5-h7--7--7--7--5--5--5|
E----------5--5--5--5--5--5--5--5--5--5--5--5--5--3--3--3|

Verse
  E5                      C
E-----------------------------------------------|
B-----------------------------------------------|
G------------------------------------0--2--0----|
D-------------2----------(2)----2---------------|
A(2)----2-----------2-----3---------------------|
E-0---------------------------------------------|
+
  A5                      G
E-----------------------------------------------||
B-----------------------------------------------||
G-------------2----------------------0--2--0----|| x 5
D(2)----2-----------2----(0)----0----0--2--0----||
A-0-----------------------x---------------------||
E-------------------------3---------------------||

Last verse measure before chorus
  E5                      C
E-----------------------------------------------|
B-----------------------------------------------|
G------------------------------------0--2--0----|
D-------------2----------(2)----2---------------|
A(2)----2-----------2-----3---------------------|
E-0---------------------------------------------|
+
  A5                     G
E-----------------------------------------------------------|
B-----------------------------------------------------------|
G-------------2----------------------0--2--2----------------|
D(2)----2-----------2---(0)----0-----0--2--2-----2--2--2--2-|
A-0----------------------x-----------------------2--2--2--2-|
E------------------------3-----------------------0--0--0--0-|

Chorus
Verse 2 (Verse 1 pattern again)
Chorus
Instrumental Bridge -
Play two measures of Verse part then this verse lead:
E---12-------12-12-12-------12-12-12-------12-12-12-12-12-12||
B---15b17----17-17-15b17----17-17-15b17----17-17-17-17-17-17||
G-----------------------------------------------------------||
D-----------------------------------------------------------||
A-----------------------------------------------------------||
E-----------------------------------------------------------||
+
E---12-------12-12-12-------12-12-15-------15-15-15-15-15-15-15-15-15-|
B---15b17----17-17-15b17----17-17-18b20----20-20-20-20-20-20-20-20-20-|
G---------------------------------------------------------------------|
D---------------------------------------------------------------------|
A---------------------------------------------------------------------|
E---------------------------------------------------------------------|
+
Then this chorus lead:
E----------8-----8--8--8-----8--8--8-----8--8--8-|
B----------8-----8--8--8-----8--8--8-----8--8--8-|
G-10-10-10-10b12-12-12-10b12-12-12-10b12-12-12-12|
D-10-10-10---------------------------------------|
A-8--8--8----------------------------------------|
E------------------------------------------------|
+
E-10----10-5-----5--5--5-----5--5--5-----5--5--5-|
B-10----10-5-----5--5--5-----5--5--5-----5--5--5-|
G-12b14-14-7-b9--9--9--7-b9--9--9--7-b9--9--9--9-|
D------------------------------------------------|
A------------------------------------------------|
E------------------------------------------------|
+
E-5-----5--8-----8--8--8-----8--8--8-----8--8--8-|
B-6-----6--8-----8--8--8-----8--8--8-----8--8--8-|
G-8-b10-10-10b12-12-12-10b12-12-12-10b12-12-12-12|
D------------------------------------------------|
A------------------------------------------------|
E------------------------------------------------|
+
E-10----10-5-----5--5--5-----5--5--5-----5--5--5----------|
B-10----10-5-----5--5--5-----5--5--5-----5--5--5----------|
G-12b14-14-7-b9--9--9--7-b9--9--9--7-b9--9--9--9----------|
D---------------------------------------------------------|
A-------------------------------------------------5--5--5-|
E-------------------------------------------------3--3--3-|

Verse 3 (repeat Verse 1 & 2 pattern)
Chorus (play two measures, the play chorus lead through to end/fade-out)

That's it.  Please leave any questions, corrections, or comments.
Cheers,
-Bennyshambles78-

Tap to rate this tab
# A B C D E F G H I J K L M N O P Q R S T U V W X Y Z