Song name
# A B C D E F G H I J K L M N O P Q R S T U V W X Y Z

Wipers - Up Front tab

UP FRONT (Props go to John Sixkiller)

Bass Intro:
G--------\----------------------------\
D--------\----------------------------\
A--0-0---\-0-0-3--0-0-0-0-0-0-3-0-----\
E------3-\------------------------3-4-\

It's got to be up front
Got to be so close to touch
It's got to be up front
Got to be so close to trust
It's got to be up front
Got to be so close to touch
It's got to be up front
Got to be so close to trust
It's got to...

Verse:
E-----------------------------\
B-----------------------------\
G------5-------------5--------\
D--7-7-5-7-7-7-7-7-7-5-7-5-6--\
A--7-7---7-7-7-7-7-7---7-5-6--\
E-----------------------------\

It's got to be up front
Got to be so close to touch
It's got to be up front
Got to be so close to trust
It's got to be up front
Got to be so close to touch
It's got to be up front
Got to be so close to trust

C G A
Oh, it's such a shame
C G A
You no longer feel no pain
C G A F G
I can't stick around while you try to decide

Interlude: (9x)
E--8-7-7-7---7-7-7-\--8-7-7-7--8-7-7-8-7-7-8-7-7-8-7-7-\
B--8-7-7-7-8-7-7-7-\--8-7-7-7--8-7-7-8-7-7-8-7-7-8-7-7-\
G----------7-------\-----------------------------------\
D------------------\-----------------------------------\
A------------------\-----------------------------------\
E------------------\-----------------------------------\

It's got to be up front
Got to be so close to touch
It's got to be up front
Got to be so close to trust
It's got to be up front
Got to be so close to touch
It's got to be up front
Got to be so close to trust
While you sit you plain
Your eyes, they show the strain
I can't stick around while you try to decide
Tap to rate this tab
 
# A B C D E F G H I J K L M N O P Q R S T U V W X Y Z