Song name
# A B C D E F G H I J K L M N O P Q R S T U V W X Y Z

Wipers - Dont Know What I Am tab

Props go to John Sixkiller

DON'T KNOW WHAT I AM

Intro:
E----------------------------------
B----------------------------------
G------12-------14-----10-----10\9-
D------12-------14-----10-----10\9-
A--10--10---12--12--8---8--8---8-7-
E--10-------12------8------8-------

Verse:
E------------------------------------------------------------------------
B--------------------------------------6-6-6-6-6-6-6-6-6-6-6-6-6-6-6-6-6-
G--------------------------------------6-6-6-6-6-6-6-6-6-6-6-6-6-6-6-6-6-
D--5-5-5-5--5-5-5-5--7-7-7-7--7-7-7-7--6-6-6-6-6-6-6-6-6-6-6-6-6-6-6-6-6-
A--5-5-5-5--5-5-5-5--7-7-7-7--7-7-7-7--8-8-8-8-8-8-8-8-8-8-8-8-8-8-8-8-8-
E--3-3-3-3--3-3-3-3--5-5-5-5--5-5-5-5--8-8-8-8-8-8-8-8-8-8-8-8-8-8-8-8-8-

Bridge:
E-------------------------------------
B-------------------------------------
G--5-5-5-5--4-4-4-4-------------------
D--5-5-5-5--4-4-4-4--3-3-3-3--2-2-2-2-
A--3-3-3-3--2-2-2-2--3-3-3-3--2-2-2-2-
E--------------------1-1-1-1--0-0-0-0-

I don't know what I am
So just go put on another sham
What to I don't know what I am
So I'll just go put on another sham
What to do when you're always subjected?
What you feel when you're always neglected?
Try to run but there's nowhere to find
No sanctuary
Do you know what you are ?
I have this feeling that we didn't go far
What we do when we're always suspected?
What we feel when we're always rejected?
Try to run but there's no where to find
No sanctuary
I don't know what I am
So just going to put on another sham
What to do when you're always subjected?
What you feel when you're always neglected?
Try to run but there's nowhere to find
No sanctuary
Tap to rate this tab
# A B C D E F G H I J K L M N O P Q R S T U V W X Y Z