Song name
# A B C D E F G H I J K L M N O P Q R S T U V W X Y Z

Wipers - Image Of Man tab

Help us improve GuitareTab! Take a short survey!
Props go to John Sixkiller

IMAGE OF MAN

Intro:
E------------------------------------------------------------------
B------------------------------------------------------------------
G--5-5-5-5-4-4-4-4-0-0-0-0-----------------------------------------
D--------------------------2-2-2-2---------------------------------
A----------------------------------3-3-3-3-2-2-2-2-----------------
E--------------------------------------------------3-3-3-3-0-0-0-0-

Verse:
E G F# E D

E---------------------------
B---------------------------
G--9-9-9--12-11-9-9-9-7-7-7-
D--9-9-9--12-11-9-9-9-7-7-7-
A--7-7-7--10--9-7-7-7-5-5-5-
E---------------------------

Outro:
E--------------------------------------------------
B--------------------------------------------------
G--9-9-7-9-9-7-9-9-7-9-9-7-9-9-7-9-9-7-9-9-7-9-9-7-
D--9-9-7-9-9-7-9-9-7-9-9-7-9-9-7-9-9-7-9-9-7-9-9-7-
A--7-7-5-7-7-5-7-7-5-7-7-5-7-7-5-7-7-5-7-7-5-7-7-5-
E--------------------------------------------------

E------------------------------------------------------------------
B------------------------------------------------------------------
G--5-5-5-5-4-4-4-4-0-0-0-0-----------------------------------------
D--------------------------2-2-2-2---------------------------------
A----------------------------------3-3-3-3-2-2-2-2-----------------
E--------------------------------------------------3-3-3-3-0-0-0-0-
Related for Image Of Man tab