Song name
# A B C D E F G H I J K L M N O P Q R S T U V W X Y Z

Wipers - Moon Rider tab

Moon Rider (Props go to John Sixkiller)
Wipers
Over The Edge

(Intro, also main bass riff)
E--------------------------------------
B--------------------------------------
G--------------------------------------
D--------------------------------------
A--0--0-0--3--0----0---0-0-0------3-5--
E----------------3------------3-5------

E---------------------------------------
B---------------------------------------
G-----------5----------------------5-7--
D--7--7-7---5---7-5-7--7-7-7--5-7--5-7--
A--7--7-7-------7-5-7--7-7-7--5-7-------
E---------------------------------------

Silver flash
Pain the flesh
I feel so tired...
I'd rather be flyin'
Straight through the sky
Straight to the sky

Moon rider...
Moon rider...
Moon rider...
Moon rider...

Blue velvet angel
Feels the tangle
Just for a taste...
Just for a taste......
Straight through the sky
Shoot from the sky

Moon rider...
Moon rider...
Moon rider...
Moon rider...

Blue velvet angel
Feels the tangle
Just for a taste...
Just for a taste......
Straight through the sky
Shoot from the sky
Tap to rate this tab
# A B C D E F G H I J K L M N O P Q R S T U V W X Y Z