Song name
# A B C D E F G H I J K L M N O P Q R S T U V W X Y Z

Wir Sind Helden - Die Konkurrenz tab

-------------------------------------------------------------------------------
		    Wir sind Helden - Die Konkurrenz 
-------------------------------------------------------------------------------
Tabbed by: nicouh	
Email: http://profile.ultimate-guitar.com/nicouh/

Tuning: Standard

The Intro Chords are:

    Gm Cm Gm Cm Gm Cm Bb Cm
e|--3--3--3--3--3--3-----3---|
B|--3--4--3--4--3--4--3--4---|
G|--3--5--3--5--3--5--3--5---| 2 times
D|-(5)---(5)---(5)----3------|
A|-------------------(1)-----|
E|---------------------------|



"the" melody:

e|--------------------------------|
B|--3----------3------------------|
G|-----3--5--3----3--5---3--5--3--|
D|--------------------------------|
A|--------------------------------|
E|--------------------------------|


e|--------------------------------|
B|--3----------3------------------|
G|-----3--5--3----3---------------|
D|-------------------5---5--5--5--|
A|--------------------------------|
E|--------------------------------|



| /  slide up
| \  slide down
| h  hammer-on
| p  pull-off
| ~  vibrato
| +  harmonic
| x  Mute note
===============================================================================
Tap to rate this tab
 
# A B C D E F G H I J K L M N O P Q R S T U V W X Y Z