Song name
# A B C D E F G H I J K L M N O P Q R S T U V W X Y Z

Wir Sind Helden - Labyrinth tab

Wir sind Helden
Labyrinth
Soundso

Tuning: Standard


Intro und Verse

e|----------------------------|-----------------------|   
B|----------------------------|-----------------------|
G|--7--7--7--7--7---7---7---7-|-7--7--7--7--7--7--7--7|
D|--9--9--9--9--9--11--11--11-|-7--7--7--7--7--7--7--7|
A|----------------------------|-----------------------|
E|----------------------------|-----------------------|
 

Refrain Gitarre 1

e|--14-----14------|---12-----12-------|--10-----9------|---12----10------|  
B|----12-----12--12|-----10-----10---10|-----7-----7---7|-----10----10--10|
G|------12-----12--|--------9------9---|-------7-----7--|-------9------9--|
D|12---------------|-12----------------|-7--------------|-12--------------|
A|-----------------|-------------------|----------------|-----------------|
E|-----------------|-------------------|----------------|-----------------|


Refrain Gitarre 2

e|----------------|----------------|----------------|----------------|   
B|----------------|----------------|----------------|----------------|
G|-4-4-4-4-4-4-4-4|-7-7-7-7-7-7-7-7|-7-7-7-7-7-7-7-7|-7-7-7-7-7-7-7-7|
D|-2-2-2-2-2-2-2-2|-4-4-4-4-4-4-4-4|-7-7-7-7-7-7-7-7|-4-4-4-4-4-4-4-4|
A|----------------|----------------|----------------|----------------|
E|----------------|----------------|----------------|----------------|



Tap to rate this tab
# A B C D E F G H I J K L M N O P Q R S T U V W X Y Z