Song name
# A B C D E F G H I J K L M N O P Q R S T U V W X Y Z

Wir Sind Helden - Bist Du Nicht Muede tab

Das ist mein erster Tab, Aenderungswuensche willkommen (einfach mich anschreiben =))!

Vers 
----------------------------------------------------------------------|
----------------------------------------------------------------------|
----------------------------------------------------------------------|
----------------------------------------------------------------------| 
----------------------------------------------------------------------|
----5-5-2-2-0-0-0-2-0-5-5-2-2-0-0-0-2-0---10-10-10-10--12-12-12-12----|

Chorus 
----------------------------------------------------------------------|
----------------------------------------------------------------------|
----------------------------------------------------------------------|
----------------------------------------------------------------------| 
----------------------------------------------------------------------|
----10-(x8)-12-(x8)-10-(x8)-12-(x8)-5-(x8)-7-(x8)-5-5-2-2-0-0-0-2-0---|

Bzw.
----------------------------------------------------------------------|
----------------------------------------------------------------------|
----11------13------11------13------6------9--------------------------|
----12------14------12------14------7------9--------------------------| 
----12------14------12------14------7------9--------------------------|
----10-(x8)-12-(x8)-10-(x8)-12-(x8)-5-(x8)-7-(x8)-5-5-2-2-0-0-0-2-0---|
	

Tap to rate this tab
 
# A B C D E F G H I J K L M N O P Q R S T U V W X Y Z