Song name
# A B C D E F G H I J K L M N O P Q R S T U V W X Y Z

Wir Sind Helden - Bring Mich Nach Hause tab

Title: Bring Mich Nach Hause
Artist: Wir Sind Helden


Chords: Gm Bb Dm Dm
Bridge: F

Piano:

E|--------------------------------|---------------------|--------------------------------|
B|---------3--4--3----------------|---------------------|---------3--4--3----------------|
G|------3---------------------3---|-------2---2---------|------3---------------------3---|
D|-----------------------3--------|---------------------|-----------------------3--------|
A|-------------------1------------|----------------0----|-------------------1------------|
D|-5------------------------------|-0-------------------|-5------------------------------|


E|------------------------|--------------------------------|---------------------|
B|------1-----------------|---------3--4--3----------------|---------------------|
G|----------2---2---------|------3---------------------3---|-------2---2---------|
D|------------------------|-----------------------3--------|---------------------|
A|-------------------0----|-------------------1------------|----------------0----|
D|-0----------------------|-5------------------------------|-0-------------------|

Bridge:

E|---------------------------------|---------------------------------|
B|---------------------------------|-1---------------3-------4-------|
G|-2-----------3-------------------|-2---------------3-------5-------|
D|-3-----------5-------------------|---------------------------------|
A|---------------------------------|---------------------------------|
D|-3---3---3---3---3---3---3---3---|-3---3---3---3---3---3---3---3---|


enjoy!

grüsli
Johann
Tap to rate this tab
 
# A B C D E F G H I J K L M N O P Q R S T U V W X Y Z