Song name
# A B C D E F G H I J K L M N O P Q R S T U V W X Y Z

Wir Sind Helden - Du Erkennst Mich Nicht Wieder tab

Das ganze ist ziemlich einfach und stimmt 90%ig.
Hab ihr beim Konzert au fide Finger geguckt.

Verse(=Intro)
|----------------------------------------------------|
|----------------------------------------------------|
|----------------------------------------------------|
|---8----8-8---8-8---8-8---8-8---8-8---8-5---5-------|
|--6-6-6--5-5-5-6-6-6-5-5-5-6-6-6-5-5-5-3-3-3--6---6-|
|---------------------------------------------4-4-4--|
 und dann mal nur
"Chorus":
|--------------------------|
|--------------------------|
|--------------------------|
|--8---8-8---8-5---5-------|
|-6-6-6-5-5-5-3-3-3--6---6-|
|-------------------4-4-4--|

Und der rocking Part dann so (bin ich mir jetzt nicht ganz so sicher):

|----------------------------------------------------------|
|----------------------------------------------------------|
|-8-8-8-8-8-8-8----------------6-6-6-6-6-6-6---------------|
|-8-8-8-8-8-8-8-10101010101010-6-6-6-6-6-6-6-6-6-6-6-6-6-6-|
|-6-6-6-6-6-6-6-10101010101010-4-4-4-4-4-4-4-6-6-6-6-6-6-6-|
|---------------8-8-8-8-8-8-8----------------4-4-4-4-4-4-4-|
Abfolge:

5xVerse
1xChorus
2xVerse
1xChorus
~10xrocking Part

Den Rüttmus in dem man das ganze Spielt werdet ihr schon herausfinden. Und den
Schlagrüttmus auch. Es sei denn ihr seit Ö3 hörer dann vergesst es ihr seit viel
zu dumm dafür.

mfg Martin
Tap to rate this tab
# A B C D E F G H I J K L M N O P Q R S T U V W X Y Z