Song name
# A B C D E F G H I J K L M N O P Q R S T U V W X Y Z

Wir Sind Helden - Ode An Die Arbeit tab

-------------------------------------------------------------------------------
		   (Ode) An Die Arbeit - Wir Sind Helden
-------------------------------------------------------------------------------
Tabbed by: Armon Toubman
Email: armont xs4all.nl

Tuning: EADGBe standard

Verse

e|---------10-10-------------------------------------------------------------|
B|----------9--9--------9----------------------------------------------------|
G|------------------------9-8------------------------------------------------|
D|---------------------------------------------------------------------------|
A|---4-54----------4-54------------------------------------------------------|
E|---------------------------------------------------------------------------|

Pre-chorus

      F#
e|----2--2-x-2--2-x-x-x-x-x--------------------------------------------------|
B|----2--2-x-2--2-x-x-x-x-x--------------------------------------------------|
G|----3--3-x-3--3-x-x-x-x-x--------------------------------------------------|
D|----4--4-x-4--4-x-x-x-x-x--------------------------------------------------|
A|----4--4-x-4--4-x-x-x-x-x--------------------------------------------------|
E|----2--2-x-2--2-x-x-x-x-x--------------------------------------------------|

Chorus

      C#m                           G#
e|----4-4-4-x-4--4-4-4-x-4--4-4-4-x-4--4--x----------------------------------|
B|----5-5-5-x-5--5-5-5-x-5--5-5-5-x-4--4--x----------------------------------|
G|----6-6-6-x-6--6-6-6-x-6--6-6-6-x-5--5--x----------------------------------|
D|----6-6-6-x-6--6-6-6-x-6--6-6-6-x-6--6--x----------------------------------|
A|----4-4-4-x-4--4-4-4-x-4--4-4-4-x-6--6--x----------------------------------|
E|----4-4-4-x-4--4-4-4-x-4--4-4-4-x-4--4--x----------------------------------|
Tap to rate this tab
# A B C D E F G H I J K L M N O P Q R S T U V W X Y Z