Song name
# A B C D E F G H I J K L M N O P Q R S T U V W X Y Z

Wir Sind Helden - Endlich Ein Grund Zur Panik tab

-------------------------------------------------------------------------------
	  Endlicht Ein Grund Zur Panik - Wir Sind Helden
-------------------------------------------------------------------------------
Tabbed by: Armon Toubman
Email: armont xs4all.nl

Tuning: EADGBe standard

p   pull-off
h   hammer-on
()  optional/variation
~   hold note

Intro / Outro / Riff

e|---------------------------------------------------------------------------|
B|---------------------------------------------------------------------------|
G|---------------------------------------------------------------------------|
D|---------------------------------------------------------------------------|
A|---5h7-----5h7-----5h7-------------5h7-0-0-5h7-0-0-5h7-0-------------------|
E|-------0-0-----0-0-----0-5h7-0-5h7-----------------------7(p5)-7p5-7-------|

Verse

e|---------------------------------------------------------------------------|
B|---------------------------------------------------------------------------|
G|---------------------------------------------------------------------------|
D|---------------------------------------------------------------------------|
A|---7-7--7(7)7-7-7-7--------------------------7-5-6-------------------------|
E|---------------------0-3-4-5-5--5(5)5-5-5-5--------------------------------|

Chorus

     C        A     or just bang the powerchords     C        A
e|---3--------5--------------------------------------------------------------|
B|---5--------5--------------------------------------------------------------|
G|---5--------6--------------------------------------5-----------------------|
D|---5--------7--------------------------------------5--------7--------------|
A|---3--------7--------------------------------------3--------7--------------|
E|---3--------5-----------------------------------------------5--------------|

End song with:

e|---------------------------------------------------------------------------|
B|---------------------------------------------------------------------------|
G|---------------------------------------------------------------------------|
D|---------------------------------------------------------------------------|
A|---------------------------------------------------------------------------|
E|----0~---------------------------------------------------------------------|
Tap to rate this tab
# A B C D E F G H I J K L M N O P Q R S T U V W X Y Z