Song name
# A B C D E F G H I J K L M N O P Q R S T U V W X Y Z

Wire - 106 Beats That chords

Highlighted       Show chord diagrams
song: "106 Beats That"
artist: WIRE
album: Pink Flag

standard tuning

C            G#  
If you had a room, he'd paint it white,

   C#        F#      Bm               
survives the day, prefers the night,

C#         E
build      slight.

                          Bm
  Got a head for figures,

E                         Bm
     no time for bickers,

E                         Bm 
     (or so he says,)

E                         Bm
 prefers the company of a woman.  (One, two, three, four!)


C            G#
Finds it more physical (that's an important word),

   C#      F#         Bm
   always seen first  then heard,

C#          E 
such a rare   bird.


Bridge riff @ 0:40

e|----------------------------------------------------------------|
B|----------------------------------------------------------------|
G|----------------------------------------------------------------|
D|----------------------------------------------------------------|
A|-7~----------7-5~---------5-3~---------3-2~------------------2/-|
E|----------------------------------------------------------------|


e|----------------------------------------------------------------|
B|----------------------------------------------------------------|
G|--------------------------------------------------------------0-|
D|--------------------------------------------------------------0-|
A|-7~----------7-5~---------5-3~---------3-2~-------------------0-|
E|----------------------------------------------------------------|

E

E
With praise he glows, with change he grows, finds that important,

E
hates waiting, it's not stimulating, etc.

E
I can't understand why that is so funny,

        E
that is sex.



That's it.

Please comment with any questions, changes, or requests.

Cheers!
-Bennyshambles78-
Tap to rate this tab
 
# A B C D E F G H I J K L M N O P Q R S T U V W X Y Z