Song name
# A B C D E F G H I J K L M N O P Q R S T U V W X Y Z

Wire - 40 Versions tab

song: "40 Verions"
by: WIRE
from the album: 154

drop-d tuning

Guitar I: Newman

Guitar II: Bruce Gilbert


INTRO/VERSE
Guitar I
e|-------------------------------------||
B|-------------------------------------||
G|-------------------------------------||
D|-------------------------------------||
A|-3h5-5---5---5---5-3h5-5---5---5---5-||
D|-0-------0---0---0-0-------0---0---0-||


VERSE
Guitar II @ 0:10
e|------------------------------------------------------------------------|
B|------------------------------------------------------------------------|
G|------------------------------------------------------------------------|
D|------------------------------------(3)--5------------------------------|
A|-9-9-9---7---9---7-9-9-9---7---9---7-3---3------------------------------|
D|-0-0-0---0---0---0-0-0-0---0---0-----3----------------------------------|


CHANGE
Guitar I
e|------------------------------------------------|
B|------------------------------------------------|
G|------------------------------------------------|
D|-5-7---------5-7---------5-7---------5-7--------|
A|-----0-3-5-------0-3-5-------0-3-5-------0-3-5--|
D|------------------------------------------------|

Guitar II (keys arranged for guitar)
e|------------------------------------------------|
B|------------------------------------------------|
G|-7-7-7-7-7-7-7-7-7-7-7-7-7-7-7-7-7-7-7-7-7-7-7-7|
D|-0-0-0-0-0-0-0-0-0-0-0-0-0-0-0-0-0-0-0-0-0-0-0-0|
A|------------------------------------------------|
D|------------------------------------------------|


Song continues to alternate between these parts
Guitar II repeats the change ad infinitum until fade out at end
Guitar I plays verse/intro riff ad infinitum until fade out at end

Guitar III at the end
e|-17------------------------------------------17---------------------|
B|-15------------------------------------------15---------------------|
G|--------------------------------------------------------------------|
D|--------------------------------------------------------------------|
A|--------------------------------------------------------------------|
E|--------------------------------------------------------------------|


That's it.

Please comment with changes, questions, or requests.

Cheers!
-Bennyshambles78-
Tap to rate this tab
# A B C D E F G H I J K L M N O P Q R S T U V W X Y Z