Song name
# A B C D E F G H I J K L M N O P Q R S T U V W X Y Z

Wire - Indirect Enquires tab

-------------------------------------------------------------------------------
                             Indirect Enquires - Wire
-------------------------------------------------------------------------------
Tabbed by: R Cook
E-mail:

Tuning: Standard

guitar 1 (let ring) repeat over guitar 2 until start of 1st verse
e|-------------------------------------------------------------------------|
B|-------------------------------------------------------------------------|
G|-------------------------------------------------------------------------|
D|-3-2---------------------------------------------------------------------|
A|-------------------------------------------------------------------------|
E|-------------------------------------------------------------------------|


guitar 2   repeat over first verse.

                      you gained..
e|-------------------------------------------------------------------------|
B|-------------------------------------------------------------------------|
G|-------------------------------------------------------------------------|
D|--------------2------------2------------3-----------3--------------------|
A|--------------2------------2------------3-----------3--------------------|
E|--------0-1-2---x-x--0-1-2---x-x--0-1-3---x-x-0-1-3---x-x----------------|


guitar 1

    joking aside,...its the one..a hint may... i think ive..
   D5               D#5          D5           F#5
e|-------------------------------------------------------------------------|
B|-------------------------------------------------------------------------|
G|-9----------------10-----------9-----------------------------------------|
D|-9----------------10-----------9-------------10--------------------------|
A|-7----------------8------------8-------------10--------------------------|
E|---------------------------------------------8---------------------------|

guitar 1 
   ...would be a waste
                      E5     F5
e|-------------------------------------------------------------------------|
B|-------------------------------------------------------------------------|
G|-------------------------------------------------------------------------|
D|--------------------2------3---------------------------------------------|
A|--------------------2------3---------------------------------------------|
E|---------------------------1---------------------------------------------|

guitar 2   repeat over second verse.

                      lying prone..
e|-------------------------------------------------------------------------|
B|-------------------------------------------------------------------------|
G|-------------------------------------------------------------------------|
D|--------------2------------2------------3-----------3--------------------|
A|--------------2------------2------------3-----------3--------------------|
E|--------0-1-2---x-x--0-1-2---x-x--0-1-3---x-x-0-1-3---x-x----------------|

guitar 1

   i might find..   but i lack.. passed a corner....
   D5               D#5          F#5
e|-------------------------------------------------------------------------|
B|-------------------------------------------------------------------------|
G|-9----------------10-----------------------------------------------------|
D|-9----------------10-----------10----------------------------------------|
A|-7----------------8------------10----------------------------------------|
E|-------------------------------8-----------------------------------------|

Tap to rate this tab
# A B C D E F G H I J K L M N O P Q R S T U V W X Y Z