Song name
# A B C D E F G H I J K L M N O P Q R S T U V W X Y Z

Wire - I Feel Mysterious Today tab

http://www.vh1.com/artists/az/wire/artist.jhtml

Band: Wire
Song: I Feel Mysterious Today


tabbed by jam9383@yahoo.com


Verse

P.M.-------------------------------------------------------------------|
e----------------------------------------------------------------------|
B----------------------------------------------------------------------|
G--7-7-7-7-------------------------------------------------------------|
D--7-7-7-7-5-5-5-5-9-9-9-9-9-9-9-9-7-7-7-7-7-7-7-7-5-5-5-5-5-5-5-5-5---|
A--5-5-5-5-5-5-5-5-9-9-9-9-9-9-9-9-7-7-7-7-7-7-7-7-5-5-5-5-5-5-5-5-5---|
E----------3-3-3-3-7-7-7-7-7-7-7-7-5-5-5-5-5-5-5-5-3-3-3-3-3-3-3-3-3---|

P.M.-------------------------------------------------------------------|
e----------------------------------------------------------------------|
B----------------------------------------------------------------------|
G--7-7-7-7-------------------------------------------------------------|
D--7-7-7-7-5-5-5-5-9-9-9-9-9-9-9-9-9-9-9-9-9-9-9-9-9-9-9---------------|
A--5-5-5-5-5-5-5-5-9-9-9-9-9-9-9-9-9-9-9-9-9-9-9-9-9-9-9---------------|
E----------3-3-3-3-7-7-7-7-7-7-7-7-7-7-7-7-7-7-7-7-7-7-7---------------|

Riff

e--1---1---1---1---1----1---------------------------------------------|
B----3---3---3---3---3--3---------------------------------------------|
G---------------------------------------------------------------------|
D---------------------------------------------------------------------|
A---------------------------------------------------------------------|
E---------------------------------------------------------------------|

Chorus

e---0---------------0--------------------0----------------------------|
B---0---------------0--------------------0----------------------------|
G---1---------------1--------------------1----------------------------|
D---2---------------2--------------------2----------------------------|
A---2---------------2--------------------2----------------------------|
E---0---------------0--------------------0----------------------------|

Outro

Really Heavy Palm Muting-----------------------------------------------|
e----------------------------------------------------------------------|
B----------------------------------------------------------------------|
G----------------------------------------------------------------------|
D----------------------------------------------------------------------|
A----------------------------------------------------------------------|
E--3-2-3-2-3-2-3-2-3-2-3-2-3-2-3-2-3-2---------------------------------|

e---------------------------------------------------------------------|
B---------------------------------------------------------------------|
G---11/9--11/9---11/9---11/9------------------------------------------|
D---11/9--11/9---11/9---11/9------------------------------------------|
A----9/7---9/7----9/7----9/7------------------------------------------|
E---------------------------------------------------------------------|

any comments/corrections e-mail, rate please
Tap to rate this tab
# A B C D E F G H I J K L M N O P Q R S T U V W X Y Z