Song name
# A B C D E F G H I J K L M N O P Q R S T U V W X Y Z

Wire - Three Girl Rumba tab

Band: Wire
Song: Three Girl Rumba
I Haven't seen any Wire tabs so I made a few, here's a simple classic


tabbed by jam9383@yahoo.com


Verse

e---------------------------------------------------------------------|
B---------------------------------------------------------------------|
G---------------------------------------------------------------------|
D---9---7---9---9-----------------------------------------------------|
A---9---7---9---9-----------------------------------------------------|
E---7---5---7---7-----------------------------------------------------|

Bridge

e---------------------------------------------------------------------|
B---------------------------------------------------------------------|
G---9----11-----------------------------------------------------------|
D---9----11----7-7-7-7-7----------------------------------------------|
A---7----9-----7-7-7-7-7----------------------------------------------|
E--------------5-5-5-5-5----------------------------------------------|

Outro

e---------------------------------------------------------------------|
B---------------------------------------------------------------------|
G---9----11-----------------------------------------------------------|
D---9----11--5--7--9-9-9-9-9------------------------------------------|
A---7----9---5--7--9-9-9-9-9------------------------------------------|
E------------4--5--7-7-7-7-7------------------------------------------|

any comments/corrections e-mail, please rate
Tap to rate this tab
 
# A B C D E F G H I J K L M N O P Q R S T U V W X Y Z