Guitaretab - guitar tabs
Song name
# A B C D E F G H I J K L M N O P Q R S T U V W X Y Z

Wire - The Commercial tab

----------------------------------------------------------------------------
			     THE COMMERCIAL - Wire
----------------------------------------------------------------------------
Tabbed by: VoSS1979
Email: voss1979@gmail.com

Tuning: Standard eBGDAE

Very easy song to play. Guitar part is even easier than bass.

  Riff 1

e|---------------------------------------------------------------------------|
B|---------------------------------------------------------------------------|
G|---------------------------------------------------------------------------|
D|---7----7----7----7----7--7------------------------------------------------|
A|---7----7----7----7----7--7------------------------------------------------|
E|---5----5----5----5----5--5------------------------------------------------|
  (played in similar rhythm to bass)

  Riff 2
[ Tab from: http://www.guitaretab.com/w/wire/86231.html ]
e|-------------------------------------------------------------------------|
B|-------------------------------------------------------------------------|
G|-------------------------------------------------------------------------|
D|---7-------5-------4-------2---------------------------------------------|
A|---7-------5-------4-------2---------------------------------------------|
E|---5-------3-------2-------0---------------------------------------------|

  Riff 3

e|---------------------------------------------------------------------------|
B|---------------------------------------------------------------------------|
G|---------------------------------------------------------------------------|
D|---2--2--2--2--2--2--2--2--2--2--2--2--2--2--2-----------------------------|
A|---2--2--2--2--2--2--2--2--2--2--2--2--2--2--2-----------------------------|
E|---0--0--0--0--0--0--0--0--0--0--0--0--0--0--0-----------------------------|

End on the same E as in Riff 3.

Song order (hope nobody will need that) :

Riff 1 x 4
Riff 2 x 2
Riff 1 x 4
Riff 2 x 2
Riff 3 x 2

| /  slide up
| \  slide down
| h  hammer-on
| p  pull-off
| ~  vibrato
| +  harmonic
| x  Mute note
===============================================================================
Related for The Commercial tab
Advertisement will be closed in 10 seconds