Guitaretab - guitar tabs
Song name
# A B C D E F G H I J K L M N O P Q R S T U V W X Y Z

Wish For Wings - From The Past To The Grave tab

www.myspace.com/wishforwingsxxx
www.wishforwings.net

Artist: Wish 4 Wings
Song: From the past to the grave
EP: From the past to the grave
Year: 2005

Tuning: Drop A

Intro
|---------------------------------------------------------------------------|
|---------------------------------------------------------------------------|
|---------------------------------------------------------------------------|
|---------------------------------------------------------------------------|
|---------------------------------------------------------------------------|
|-10-8-0-7-0-0-7-00---------------------------------------------------------|

Verse kinda thing Pt 1
|---------------------------------------------------------------------------|
|---------------------------------------------------------------------------|
|---------------------------------------------------------------------------|
|---------------------------------------------------------------------------|
|---------------------------------------------------------------------------|
|-0-0-000-6-0-3-0-6-0-66----------------------------------------------------|

Pt 2
|---------------------------------------------------------------------------|
|---------------------------------------------------------------------------|
|---------------------------------------------------------------------------|
|---------------------------------------------------------------------------|
|---------------------------------------------------------------------------|
|-0-6-0-0-3-0-0-6-00-3-00---------------------------------------------------|

Pt 3
|---------------------------------------------------------------------------|
|---------------------------------------------------------------------------|
|---------------------------------------------------------------------------|
|---------------------------------------------------------------------------|
|------------------------------0-6-0-0-6-0-0-3-00-3-6-0---------------------|
|-0-6-0-0-6-0-0-3-00-3-6-0--/--0-6-0-0-6-0-0-3-00-3-6-0---------------------|
[ Tab from: http://www.guitaretab.com/w/wish-for-wings/75487.html ]
Chorus (strum the 10th on the g-string same as the open bottom strings)
|---------------------------------------------------------------------------|
|---------------------------------------------------------------------------|
|---10-10-99-10--- 1010-10----12-1212---------------------------------------|
|-0-00-00-00-00----8-88-88----10-1010----10-8-7-0---------------------------|
|-0-00-00-00-00----8-88-88----10-1010----10-8-7-0---------------------------|
|-0-00-00-00-00----8-88-88----10-1010----10-8-7-0---------------------------|

Bridge Pt 1
|---------------------------------------------------------------------------|
|---------------------------------------------------------------------------|
|---------------------------------------------------------------------------|
|-10-8-7-0-----10-8-7-0----10-8-7-0-----------------------------------------|
|-10-8-7-0-----10-8-7-0----10-8-7-0--000000000000000------------------------|
|-10-8-7-0-----10-8-7-0----10-8-7-0--000000000000000------------------------|
Bride Pt 2
|---------------------------------------------------------------------------|
|---------------------------------------------------------------------------|
|-----10---9---10---12---10---9-10-9-/------10--9--10--12--10--9-10-9-------|
|-1212--12--12---12---12---12---------/-1010--10-10--10--10--10-------------|
|--------------------------------------------------------------------00-00--|
|--------------------------------------------------------------------00-00--|

Bridge Pt 2
|---------------------------------------------------------------------------|
|---------------------------------------------------------------------------|
|---------------------------------------------------------------------------|
|---------------------------------------------------------------------------|
|----12-10-12-13--12-10-12-10-/----8--7--8--10--8---7-8-7-00-00-00----------|
|-00---0--0--0--0---0---------/1010-10-10-10--10-10-------00-00-00----------|

Breakdown Ďin the pití
|---------------------------------------------------------------------------|
|---------------------------------------------------------------------------|
|---------------------------------------------------------------------------|
|---------------------------------------------------------------------------|
|-0-0-0000-0-0-0---0-0000-0-0-0---0-0000-0-0-0---0-0000-0-0-0---------------|
|-0-0-0000-0-0-0---0-0000-0-0-0---0-0000-0-0-0---0-0000-0-0-0---------------| cont...

Order

Intro
Verse pt 1
Verse pt 2
Verse pt 3
Chorus
Verse pt 2
Verse pt 3
Chorus
Bridge pt 1
Bridge pt 2
Bridge pt 3
Breakdown
Bridge pt 2

It ainít 100% so if you have anything to say: peddaroski@hotmail.com