Guitaretab - guitar tabs
Song name
# A B C D E F G H I J K L M N O P Q R S T U V W X Y Z

Wishbone Ash - Standing In The Rain tab

Artist - Wishbone Ash
Title - Standing in the Rain
Album - Live in Chicago
Track - 03

Intro

E|--5--|--3--|-----------------|------------|-----------------|------------|-(2)-|-(5)-|
B|--7--|--5--|-----3-2-----0---|------------|-----3-2-----0---|------------|--4--|--7--|
G|--7--|--5--|-2h4-----2-0---2-|-----2---2--|-2h4-----2-0---2-|-----2---2--|--4--|--7--|
D|--7--|--5--|-----------------|-2h4---2-2--|-----------------|-2h4---2-2--|--4--|--7--|
A|--5--|--3--|-----------------|---------0~-|-----------------|---------0~-|--2--|--5--|
E|--5--|--3--|-----------------|------------|-----------------|------------|--2--|--5--|

Verse 

E    G F# x2

E      G   F#           E    G F#
Flying through the sky
E                    G      F#                E     G F#
His true love waits, lonely time’s gone by.
B
There’s a problem at the border
B                            G
He learns they won’t let him through.

Bm      A               E
She was standing in the rain.
Bm           A        E
She waits in vain for you.
Bm      A               E
She was standing in the rain.
Bm            A                  E
She knows her love will pull her through.


  P.M ---------->

E|---------------|    |-(2)-|-(5)-|  
B|-5-5-5---------|    |--4--|--7--| GUITAR 1
G|-------7-7-4---|    |--4--|--7--|
D|-------------5-|    |--4--|--7--|
A|---------------|    |--2--|--5--|
E|---------------| x8 |--2--|--5--|

E|---------------|    |-(2)-|-(5)-|
B|-8-8-8-7-7-----|    |--4--|--7--| GUITAR 2
G|-----------7---|    |--4--|--7--|
D|-------------9-|    |--4--|--7--|
A|---------------|    |--2--|--5--|
E|---------------| x8 |--2--|--5--|

E    G F# x2

E           G  F#       
Immigration law must be obeyed.
E               G       F#
Close the case, return another day.
B
On the phone he tries to tell her
B                           G
He must go without a single word.

Bm      A               E
She was standing in the rain.
Bm           A        E
She waits in vain for you.
Bm      A               E
She was standing in the rain.
Bm            A                  E
She knows her love will pull her through.

  P.M ---------->

E|---------------|
B|-5-5-5---------| GUITAR 1
G|-------7-7-4---|
D|-------------5-|
A|---------------|
E|---------------| x8

E|---------------|
B|-8-8-8-7-7-----| GUITAR 2
G|-----------7---|
D|-------------9-|
A|---------------|
E|---------------| x8

~~~~~~~~~~~~~~~~~~~~~~~~~~~~~~~~~~~~~~~~~~~~~~~~~~~~~~~~~~~~~~~~~~~~~~~~~~~~~
LEAD INTERLUDE

[ Tab from: http://www.guitaretab.com/w/wishbone-ash/150518.html ]
E|---------|--------------|-------------------|-----------------|---------------------|
B|---------|--------------|-------------------|-12-11-9h11p9----|-10-12-12b14-10-12-9-|
G|-8-9-9-8-|-8-9-9b11-8---|------9----11b13-9-|--------------11-|---------------------|
D|---------|------------9-|-9h11---11---------|-----------------|---------------------|
A|---------|--------------|-------------------|-----------------|---------------------|
E|---------|--------------|-------------------|-----------------|---------------------|

E|------------|---------11-12-12b14-12-11-9-11-11-|
B|-9h10p9-7---|-9-10-12---------------------------| GUITAR 1
G|----------9-|-----------------------------------|
D|------------|-----------------------------------|
A|------------|-----------------------------------|
E|------------|-----------------------------------|

~~~~~~~~~~~~~~~~~~~~~~~~~~~~~~~~~~~~~~~~~~~~~~~~~~~~~~~~~~~~~~~~~~~~~~~~~~~~~~~~~~~~~~

E|-7-9-9-7-|-7-9-9b11-7---|-----7---9b11-7-|-\11-9-7h9p7\6-|-9-10-10b12-9-10\7-|
B|---------|------------7-|-7h9---9--------|---------------|-------------------|
G|---------|--------------|----------------|---------------|-------------------|
D|---------|--------------|----------------|---------------|-------------------|
A|---------|--------------|----------------|---------------|-------------------|
E|---------|--------------|----------------|---------------|-------------------|

E|-7------|-12-14-16-17-19-21b23-21-19-18-19-19-|
B|---10-9-|-------------------------------------| GUITAR 2
G|--------|-------------------------------------|
D|--------|-------------------------------------|
A|--------|-------------------------------------|
E|--------|-------------------------------------|

~~~~~~~~~~~~~~~~~~~~~~~~~~~~~~~~~~~~~~~~~~~~~~~~~~~~~~~~~~~~~~~~~~~~~~~~~~~~~~~~~~~~

E|-----------------|------------|-----------------|------------|-(2)-|-(5)-|
B|-----3-2-----0---|------------|-----3-2-----0---|------------|--4--|--7--|
G|-2h4-----2-0---2-|-----2---2--|-2h4-----2-0---2-|-----2---2--|--4--|--7--|
D|-----------------|-2h4---2-2--|-----------------|-2h4---2-2--|--4--|--7--|
A|-----------------|---------0~-|-----------------|---------0~-|--2--|--5--|
E|-----------------|------------|-----------------|------------|--2--|--5--|

E    G F# x2

E             G      F#            E    G F#
Taking to the cloudy skies again,
E               G       F#             E    G F#
The city lights shimmer on the plane.
B
In his eyes he sees the sadness,
B                               G
For his love will always be the same.

Bm      A               E
She was standing in the rain.
Bm           A        E
She waits in vain for you.
Bm      A               E
She was standing in the rain.
Bm            A                  E
She knows her love will pull her through.

  P.M ---------->

E|---------------|
B|-5-5-5---------| GUITAR 1
G|-------7-7-4---|
D|-------------5-|
A|---------------|
E|---------------| x8

E|---------------|
B|-8-8-8-7-7-----| GUITAR 2
G|-----------7---|
D|-------------9-|
A|---------------|
E|---------------| x8

GUITAR SOLO

Chords Bm    A    E

~~~~~~~~~~~~~~~~~~~~~~~~~
Related for Standing In The Rain tab