Song name
# A B C D E F G H I J K L M N O P Q R S T U V W X Y Z

Wishbone Ash - Throw Down The Sword tab

-------------------------------------------------------------------------------
	           Throw down the sword - Wishbone ash
-------------------------------------------------------------------------------
Tabbed by: AndyT
Email:andrew(at)norvil.net

Tuning:EADGBe

Guitar I
e|-----------------------------------------------------------|
B|-----------------------------------------------------------|
G|-----------------------------------------------------------|
D|----2--2-----2-0-2-3--3-----2-0-----------------2---2-0----| x2
A|0~~~~~~~~~~~~~~~~~~~~~~~~~-------3--3-----0-2-3---------3-2|
E|-----------------------------------------------------------|



Guitar I
e|-----------------------------------------------------------|     
B|-----------------------------------------------------------|      
G|-----------------------------------------------------------|      
D|----2--2-----2-0-2-3--3-----2-0-----------------2---2-0----| x6
A|0~~~~~~~~~~~~~~~~~~~~~~~~~-------3-0-3----0-2-3---------3-2|
E|-----------------------------------------------------------|

Guitar II
e|-----------------------------------------------------------|
B|-------------------3--3------------------------------------|
G|2---5--5-----5-4-5----------5-4--2--2-----0-2-4-5---5-4-2-0|
D|-----------------------------------------------------------| x6
A|-----------------------------------------------------------|
E|-----------------------------------------------------------|



===============================================================================
Tap to rate this tab
# A B C D E F G H I J K L M N O P Q R S T U V W X Y Z