Song name
# A B C D E F G H I J K L M N O P Q R S T U V W X Y Z

Wishbone Ash - Shoulda Woulda Coulda tab

E:-----------------------0-----------------------------3--------------------|
B:-----------------0-1-----------------------3---5--------------------------|
G:-----2--0--2---2-----2-------2--0----4--5----5---5------------------------|
D:-----2--0--2-----------------2--0-----------------------------------------|
A:---2---------2-------------2----------------------------------------------|
E:--------------------------------------------------------------------------|


E:-----------------------0--------------------------3--5--2-----------------|
B:-----------------0-1-----------------------3--5---------------------------|
G:-----2--0--2---2-----2-------2--0----4--5---------------------------------|
D:-----2--0--2-----------------2--0-----------------------------------------|
A:---2---------2-------------2----------------------------------------------|
E:--------------------------------------------------------------------------|
Tap to rate this tab
# A B C D E F G H I J K L M N O P Q R S T U V W X Y Z