Guitaretab - guitar tabs
Song name
# A B C D E F G H I J K L M N O P Q R S T U V W X Y Z

Wishbone Ash - Blowin Free tab

-------------------------------------------------------------------------------
			     Blowin' Free - Wishbone Ash
-------------------------------------------------------------------------------
Tabbed by: Bantha 29
Email: 

Tuning: Standard

e|-----7----10----8----7----5----8----6----5----2----5----3----2--|
B|-----8----8-----8----8----6----6----6----6----3----3----3----3--|
G|-----7----7-----7----7----5----5----5----5----2----2----2----2--|
D|-----x----------------------------------------------------------|
A|-----x----------------------------------------------------------|
E|-----x----------------------------------------------------------|
[ Tab from: http://www.guitaretab.com/w/wishbone-ash/21014.html ]
e|----------------0-h-2---------------0-h-2-----------------------|
B|-------------3---------3---------3---------3--------------------|
G|-----0-h-2----------------0-h-2---------------------------------|
D|----------------------------------------------------------------|
A|----------------------------------------------------------------|
E|----------------------------------------------------------------|

Play this four times. I'm sure this is the same for both guitars but feel free to pull me up on this one!




| /  slide up
| \  slide down
| h  hammer-on
| p  pull-off
| ~  vibrato
| +  harmonic
| x  Mute note
===============================================================================
Related for Blowin Free tab
Blowin Free chords by Wishbone Ash