Wishbone Ash - Throw Down The Sword tab

010C/B   x22010G     320003Gsus4 320013G7    353433D     xx0323F     133211Fmaj7 
133210Intro:Part 1 (play twice)
E|-------------------|-------------------|
B|-------------------|-------------------|
G|-------------------|-------------------|
D|------2---2-----2--|--0-2-3---3-----2--|
A|--0----------------|-------------------|
E|-------------------|-------------------| 

E|-------------------|-------------------|
B|-------------------|-------------------|
G|-------------------|-------------------|
D|--0----------------|----0-2---2-0------|
A|------3---3-----2--|--3-----------3-2--|
E|-------------------|-------------------|  

Part 2 (play six times)
E|-------------------|-------------------|
B|------1---1-----1--|--0-1-3---3-----1--|
G|--2----------------|-------------------|
D|------2---2-----2--|--0-2-3---3-----2--|
A|--0----------------|-------------------|
E|-------------------|-------------------|  

 1 - 5                               
E|-------------------|-------------------|
B|--0----------------|----0-1---1-0------|
G|------2---2-----0--|--2-----------2-0--|
D|--0----------------|----0-2---2-0------|
A|------3---3-----2--|--3-----------3-2--|
E|-------------------|-------------------|    

6
E|-------------------|-------------------|
B|--0----------------|----0-1---1-0------|
G|------2---2-----0--|--2-----------2----|
D|--0----------------|----0-2---2-0------|
A|------3---3-----2--|--3-----------3----|
E|-------------------|-------------------|  

Part 3 (play twice)
E|-------------------|-------------------|
B|------0---0-----0--|--1-0---1----------|
G|--0-2--------------|------2---2----(2)-|
D|------0---0-----0--|--2-0---2-0--------|
A|--2-3--------------|------3------------|
E|-------------------|-------------------|   

E|-------------------|-------------------|
B|----------------1--|--0---0-1-0--------|
G|----0-2---2--------|----2--------------|
D|--3-------------2--|--0---0-2-0--------|
A|--0-2-3---3--------|----3--------------|
E|-------------------|-------------------|    

E|-------------------|-------------------|
B|----------------1--|--0---0-1-0--------|
G|----0-2---2--------|----2---------2-0--|
D|--3-------------2--|--0---0-2-0--------|
A|--0-2-3---3--------|----3---------3-2--|
E|-------------------|-------------------|
Tap to rate this tab
 
# A B C D E F G H I J K L M N O P Q R S T U V W X Y Z