Song name
# A B C D E F G H I J K L M N O P Q R S T U V W X Y Z

Wishbone Ash - Leaf And Stream tab

-----------------------------------------------------------------------------
                                          Artist - Wishbone Ash
                                         ***********************
                                         Song - Leaf And Stream 
                                        ************************
                                             Album - Argus 
                                            ***************
                                         Tabbed By - Ayreon77
                                        **********************
-----------------------------------------------------------------------------
Tuning = Standard

This is all the solos in the song.

01:33
[--------------------|----------------------|------------------]
[--------------------|------------------10--|--13----15-13-15--]
[-----10-12-10-9-----|-----9-10-12-10-9-----|-----12-----------]
[--12------------12--|--12------------------|------------------]
[--------------------|----------------------|------------------]
[--------------------|----------------------|------------------]

    rb            h  p                      h  p
[--15-13-12-13--12-13-12-----|-----12-13--12-13-12-----]
[------------------------15--|--15-----------------15--]
[----------------------------|-------------------------]
[----------------------------|-------------------------]
[----------------------------|-------------------------]
[----------------------------|-------------------------]

        rb
[---*--13--10----------------------------------------]
[--15------------s-----------------------------------]
[--------------10\9---------------h--p---------------]
[-------------------12----s-----10-12-10---s---------]
[-----------------------10\8-------------12\10-8-----]
[----------------------------8-------------------10--]


[------------------------]
[------------------------]
[------------------------]
[-------------s---10-12--]
[--h---8-10-10\12--------]
[-8-10-------------------]


[----------------------s----10-12-13--15-12------------12------b--]
[---------------8-10-11\13------------------13---s--------13-13---]
[---h---7-9-10---------------------------------12\10--------------]
[--8-10-----------------------------------------------------------]
[-----------------------------------------------------------------]
[-----------------------------------------------------------------]


[--------------------------------------]
[--13-10-------------------------------]
[--------13-12-10-9--------------------]
[-------------------12----------10-12--]
[----------------------10-11-12--------]
[--------------------------------------]

                                rb             h  p  
[-----10-12-13-12-10-12-10--|--15--13-12-13--12-13-12-----]
[---b-----------------------|-------------------------15--]
[--12-----------------------|-----------------------------]
[---------------------------|-----------------------------]
[---------------------------|-----------------------------]
[---------------------------|-----------------------------]


02:19
solo ends litle solos

[--------------------------------|---------------------------]
[----13-10-----------------------|-----13-10-----------------]
[-10-------10--------------------|--10-------10----12-10-----]
[-------------12----------10-12--|--------------12-------12--]
[----------------10-11-12--------|---------------------------]
[--------------------------------|---------------------------]


[-----------------------|---------------------------------]
[----13-10--------------|-----13-10-----------------------]
[-10-------10------s----|--10-------10--------------------]
[-------------12-10\12--|--------------12---h--h---10-12--]
[-----------------------|-----------------10-11-12--------]
[-----------------------|---------------------------------]


02:41              
   slow bend                              03:09
    rb    bend up bend down      rb           b
[--13----------b--r-------------15-----------13--13--10-----]
[-----------15----------------------------10------------10--]
[-----------------------------------------------------------]
[-----------------------------------------------------------]
[-----------------------------------------------------------]
[-----------------------------------------------------------]

03:38
[-------p----------|-------------p------------------------]
[-----13-10--------|-----10----13-10--------repeat--------]
[--10-------10-----|--10----10-------10------------to-----]
[--------------12--|--------------------12------------end-]
[------------------|--------------------------------------]
[------------------|--------------------------------------]



ENJOY.......
Tap to rate this tab
# A B C D E F G H I J K L M N O P Q R S T U V W X Y Z