Song name
# A B C D E F G H I J K L M N O P Q R S T U V W X Y Z

Wishbone Ash - King Will Come tab

Artist - Wishbone Ash
Title - The King Will Come
Album - Living Proof - Live in Chicago
Track - 01

Intro 

E|---1---1---3---0-|
B|---3---3---3---3-|
G|---2---2---0---0-|Repeat as necessary.
D|-0-0-3-3-2-2-2-2-|
A|-----------------|
E|-----------------|

E|------------------------------|
B|------------11-10-------------|
G|------------------10-9--------|
D|-12--------------------12-----|
A|---10-12------------------12--|
E|---------12-------------------| x4

Dm               G
In the fire, the king will come.
Dm             C         G
Thunder rolls, piper and drum.
Dm         G
Evil sons, overrun,
Dm                 C        G
Count their sins - judgment comes. 

E|------------------------------|
B|------------11-10-------------|
G|------------------10-9--------|
D|-12--------------------12-----|
A|---10-12------------------12--|
E|---------12-------------------| x2

The checkerboard of nights and days -
Man will die, man be saved.
The sky will fall, the earth will pray,
When judgment comes to claim its day.

E|------------------|----------------|---------------------8-------------|
B|---------------10-|----------------|----------------8b10---10b8-6------|
G|----7-9b10-9-7----|---7-9b10-9-7-5-|---7-9b10-9-7-5---------------7-5--|
D|--7---------------|-7--------------|-7---------------------------------|
A|------------------|----------------|-----------------------------------|
E|------------------|----------------|-----------------------------------|

F            Em
See the word of the prophet
C                 Am        G
On a stone in his hand.
F          Em
Poison pen revelation,
C                     Am
Or just a sign in the sand?

HIGHER HARMONY

E|------------------|----------------|-----------------|-------------|
B|---------------10-|----------------|--------------10-|-10----13-12-|
G|----7-9-10-9-7----|---7-9-10-9-7-5-|---7-9-10-9-7----|----10-------|
D|--7---------------|-7--------------|7----------------|-------------|
A|------------------|----------------|-----------------|-------------|
E|------------------|----------------|-----------------|-------------|

E|-------------|-------------|--------------|-----------------|
B|-12----15-13-|-------------|--------------|-------12--------|
G|----12-------|-------------|--12-14-16-14-|-12-14----12-14--|
D|-------------|-14-16-17-16-|--------------|-----------------|
A|-------------|-------------|--------------|-----------------|
E|-------------|-------------|--------------|-----------------|

LOWER HARMONY

E|---------------|---------------|---------------|---------|------------|
B|---------------|---------------|---------------|---------|------------|
G|-------2-----5-|------2--------|-------2-----5-|-5---7b9-|-7---9b10-9-|
D|-2-3-5---5-3---|-2-3-5---5-3-2-|-2-3-5---5-3---|---7-----|---9--------|
A|---------------|---------------|---------------|---------|------------|
E|---------------|---------------|---------------|---------|------------|

E|-----------|-----------|-----------|
B|-----------|-----------|-----------|
G|-5---------|-----------|-----------|
D|---7-7b9-7-|-4-5-5b7-5-|-4-5-7-5-2-|
A|-----------|-----------|-----------|
E|-----------|-----------|-----------|

SOLO (Just use a Dm pentatonic, with Wah-Wah pedal.)

INTERLUDE

E|---------------------------------------|-----------------------3-------0--
B|---------------3---------3-----5-----6-|---------------3---------3-------1
G|-2-0h2p0---0-2---2---------------------|-2-0h2p0---0-2---2---0-------0----
D|---------3---------0-2/3-3-3/5-5-5/7-7-|---------3---------0-------2------
A|---------------------------------------|----------------------------------
E|---------------------------------------|----------------------------------

BACK TO MAIN RIFF

E|------------------------------|
B|------------11-10-------------|
G|------------------10-9--------|
D|-12--------------------12-----|
A|---10-12------------------12--|
E|---------12-------------------| x4
              
In the fire, the king will come.
Thunder rolls, piper and drum.
Evil sons, overrun,
Count their sins - judgment comes.

E|------------------|----------------|---------------------8-------------|
B|---------------10-|----------------|----------------8b10---10b8-6------|
G|----7-9-10-9-7----|---7-9-10-9-7-5-|---7-9-10-9-7-5---------------7-5--|
D|--7---------------|-7--------------|-7---------------------------------|
A|------------------|----------------|-----------------------------------|
E|------------------|----------------|-----------------------------------|

See the word of the prophet
On a stone in his hand.
Poison pen revelation,
Or just a sign in the sand?


E|------------------------------|
B|------------11-10-------------|
G|------------------10-9--------|
D|-12--------------------12-----|
A|---10-12------------------12--|
E|---------12-------------------| x3 

then end on:

E|--------------------------|
B|--------------------------|
G|--------------------------|
D|-12----------12----12-12--|
A|----10-12-12----12--------|
E|--------------------------|
Tap to rate this tab
# A B C D E F G H I J K L M N O P Q R S T U V W X Y Z