Song name
# A B C D E F G H I J K L M N O P Q R S T U V W X Y Z

Wisin And Yandel - Tus Sabanas tab

poes asi es como empieza  esta cansion

1(-----0-----------------0----------0-|
2(-----0-----------------0----------0-|
3(-----6-----------------6----------6-|
4(-----0-----------------0----------0-|
5(----------4-5---2-4-5-------4-5-----|
6(------------------------------------|

   y abrochate el cinturon...........

   otra dimension.........

                       coro
   mi amor me encantaria enredarme en tus sabanas y que mi pidas mas mas mas


1(------------------------------------|
2(------------------------------------|
3(------------------------------------|
4(------------------------------------|
5(---2-4--5-----2-4--5--------2--4--5-|
6(------------------------------------|
  mi amor me encantaria que te pongas romantica y que me pidas mas mas mas
Tap to rate this tab
 
# A B C D E F G H I J K L M N O P Q R S T U V W X Y Z