Song name
# A B C D E F G H I J K L M N O P Q R S T U V W X Y Z

Wisin And Yandel - Pam Pam tab

este es mi segundo tab despues de el de tus sabanas
saludos a cd juarez y a mis compas que les gusta el reggaeton
mark  jorge yiyo ale fety costal  javi

by: efren

for the world.....

1(---3---6---------3---6-----)
2(-----------5-------------5-)
3(---------------------------)x2
4(---------------------------)
5(---------------------------)
6(---------------------------)


1(---------------------------)
2(---3---6---------3---6-----)
3(-----------5-------------5-)x2
4(---------------------------)
5(---------------------------)
6(---------------------------)

acercate a mi un poquito ......

se repite todo
Tap to rate this tab
# A B C D E F G H I J K L M N O P Q R S T U V W X Y Z