Song name
# A B C D E F G H I J K L M N O P Q R S T U V W X Y Z

Witch Hunt - Access Denied tab

-------------------------------------------------------------------------------
                             Access Denied - Witch Hunt
-------------------------------------------------------------------------------
Tabbed by: DJ-IcyWalrus
E-mail: DJ-IcyWalrus@hotmail.com

Tuning: Standard

This is my first tab. I didn't see this song on the web so I decided to try it out. 
Enjoy. Feedback would be appreciated.

Part 1- This is the first riff that is played. If you listen to the song you can hear 
the strumming.
e|--------------------------------------------------------------------|
B|--------------------------------------------------------------------|
G|-9-------9-------10--------9-------10-------10-------10-------13----|
D|-9-------9-------10--------9-------10-------10-------10-------13----|
A|-7-------7--------8--------7--------8--------8--------8-------11----|
E|--------------------------------------------------------------------|

Part 2- It has the same sort of strumming as the first riff.
e|----------------------------------------------------------------------|
B|----------------------------------------------------------------------|
G|-9--------9--------13-------10--------9-------9-------10-------13-----|
D|-9--------9--------13-------10--------9-------9-------10-------13-----|
A|-7--------7--------11--------8--------7-------7--------8-------11-----|
E|----------------------------------------------------------------------|

Part 3- This part is a little bit faster than the first two.
e|------------------------------------------------------------------|
B|------------------------------------------------------------------|
G|-9---9--10--10---9---9---7---7---9---9--10--10---9---9---13---13--|
D|-9---9--10--10---9---9---7---7---9---9--10--10---9---9---13---13--|
A|-7---7---8---8---7---7---5---5---7---7---8---8---7---7---11---11--|
E|------------------------------------------------------------------|

Part 4- I'm not quite sure about this part, but I believe it goes as follows.
A.                             B.
e|-------------------|------------------------|
B|-------------------|------------------------|
G|-12-----------12---|---9---10--9--13--------|
D|-12(let ring)-12---|---9---10--9--13--------|
A|-10-----------10---|---7---8---7--11--------|
E|-------------------|------------------------|

End Part- You can figure out the strumming by listening to the song. I think it is 6x each.
e|----------------|
B|----------------|
G|----------------|
D|-14--12--10--9--|
A|-14--12--10--9--|
E|-12--10---8--7--|

Song Order by Part:
          First- 4x
          Second- 2x
          First- 4x
          Second- 2x
          Third- 4x
          Fourth (A)- 1x
          Fourth (B)- 2x
          Fourth (A)- 1x
          Fourth (B)- 2x
          Fourth (A)- 1x
          Fourth (B)- 8x
          End Part- 1x
Tap to rate this tab
 
# A B C D E F G H I J K L M N O P Q R S T U V W X Y Z