Guitaretab - guitar tabs
Song name
# A B C D E F G H I J K L M N O P Q R S T U V W X Y Z

Witchcraft - Chylde Of Fire tab

Witchcraft - Chylde Of Fire
============================

List to the song for timing. Couldn't be arsed to get the solo, gotta transcribe it yourself.


Intro Riff
E|------------------|		 
B|------------------|		
G|------------------|		 
D|---------x--x--x--|	x3 then	  
A|--7---7--x--x--x--|		    
E|--5---5--x--x--x--|		     

E|-------------------|
B|-------------------|
G|-------------------|
D|-------------------|
A|-------------------|
E|-3--0--0--3--0--0--|

Verse
E|------------------|
B|------------------|
G|------------------|
D|---------x--x--x--|
A|--7---7--x--x--x--|
E|--5---5--x--x--x--|
[ Tab from: http://www.guitaretab.com/w/witchcraft/105694.html ]
Fill 1
E|--------------------------|
B|--------------------------|
G|--------------------------|
D|--------------------------|
A|--7--5--------------------|
E|--------8--7--8--7--5--3--|

Fill 2
E|-------------|
B|-------------|
G|-------------|
D|-------------|
A|-------------|
E|--5--5--0-3--|

Bridge
E|--------------------------------------------------|
B|--------------------------------------------------|
G|--------------------------------------------------|
D|--------------------------------------------------|
A|--7--5--5--7--7-----------------------------7--5--|
E|-----------------8--7--8--7--8--8--7--8--7--------|


Play these riffs in the following order:

Intro		x2
Verse		x16
Fill 1		
Intro		
Verse		x16
Fill 1		
Fill 2		x8
Intro		x2
Verse		x16
Fill 1
Fill 2		x8
 == SOLO ==
Fill 2		x8
Bridge		x5
Related for Chylde Of Fire tab
Advertisement will be closed in 10 seconds