Song name
# A B C D E F G H I J K L M N O P Q R S T U V W X Y Z

Witchcraft - Queen Of Bees tab

Help us improve GuitareTab! Take a short survey!
awesome song! this is every thing except the solo

intro:
-----------------------------|
-----------------------------|
-----------------------------|
--7--------------------------|
--9---5--7--9----------------|
--0---3--5--7----------------|  x5


main riff 1:
----------------------------------|
----------------------------------|
----------------------------------|
-9--12--7--10---9-9-9-9-9-9--9-9--|
-7--10--5--8----7-7-7-7-7-7--7-7--|
---------------7-7-7-7-7-7-7------| x6
             PM..................

main riff 2:
-----------------------------|
-----------------------------|
-----------------------------|
-------2-0-------------------|
-0-0-3-----3-2---2-0-0-------|
---------------3-------------|  x2

then play main riff 1 again

pre solo:

------------------------------------|
------------------------------------|
------------------------------------|
------------------------------------|
-9--7-9-7-9--7-9-7-9--7-9-7-9--9-12-|
-7--5-7-5-7--5-7-5-7--5-7-5-7--7-10-|


solo- sorry i dont know it yet


end:

-----------------------------|
-----------------------------|
-----------------------------|
-2--5--7--9------------------|
-2--5--7--9------------------|
-0--3--5--7------------------|
Related for Queen Of Bees tab