Song name
# A B C D E F G H I J K L M N O P Q R S T U V W X Y Z

Witchcraft - Schyssta Logner tab

Hello maties, here's the tabs for the wonderful Witchcraft song "Schyssta Lögner" (which 
to Sweet Lies).
I personally love it, it's a very easy song.
Have fun and enjoy!.

A tab by Mads Yde aka. Ridder Lugtepik

Schyssta Lögner
Witchcraft
Witchcraft (2004)
Words and music by Magnus Pelander

Riff 1
E----------------------------------|----------------------------------|
B----------------------------------|----------------------------------|
G----------------------------------|----------------------------10----|
D-10h12-12-12-------10-------------|-10h12-12-12-------10-------------|
A-------------10h12----12-10-------|-------------10h12----12-10-------|
E----------------------------10----|----------------------------------|

E----------------------------------|----------------------------------|
B----------------------------------|----------------------------------|
G----------------------------------|----------------------------------|
D-10h12-12-12-------10-------------|-10h12-12-12----------------------|
A-------------10h12----12-10-------|-------------10h12p10-8hp10-------|
E----------------------------10----|----------------------------10----|


Verse Riff                                Lyrics
E----------------------------------|       Du springer runt i cirklar
B----------------------------------|       Du kommer ingenstans
G----------------------------------|       Åh du snackar och du ljuger
D----------------------------------|       Du har inget sans
A-10/12-12-12----------------------|
E-8//10-10-10----------------------|


Riff 3        Riff 3.5 (1)
E-----------------------------------|------------------------------------|
B-----------------------------------|------------------------------------|
G-----------------------------------|------------------------------------|
D-----------------------------------|------------------------------------|
A-15----14---------------8----------|-15----14----12-10----10------------|
E-13----12----8h10-10-10---10--8h10-|-13----12----------13----13-10-8h10-|

Repeat Riff 1, Verse Riff and Riff 3


Play a solo in Dm Pentaton


Riff 4                           Lyrics
E--------------------------------| Ett steg fram två steg bak nej nä-ä-ä-j
B--------------------------------| Kan ingen tala om vad som händer med mig
G--------------------------------|
D--------------------------------|
A-12-12-12-15-15-15-19-17-19-15--|
E-10-10-10-13-13-13-17-15-17-13--|
 play this riff 2 times

Then (Outro riff)
E-------------------------|--------------------------------------|
B-------------------------|--------------------------------------|
G-------------------------|--------------------------------------|
D-------------------------|--------------------------------------|
A--------------8----------|-15----14--12--12--12--12--12--12-----|
E---8h10-10-10---10--8h10-|-13----12--10--10--10--10--10--10-----|

Sung Structure
Riff 1 x1
Verse Riff x4
Riff 3 x1
Riff 1 x1
Verse Riff x4
Riff 3 x1
Riff 4 X2
Outro riff x1

Lyrics:
Du springer runt i cirklar
Du kommer ingenstans
Åh du snackar och du ljuger
Du har inget sans

Du har alltid haft turen
Att få som du vill
Men nu är lyckan din över
Du får ingen till

Den killen gav mig schyssta lögner
Lyssna på när han sjunger

Ett steg fram två steg bak nej nä-ä-ä ne-hej
Kan ingen tala om vad som händer med mig


Tabbed by Mads Yde aka. Ridder Lugtepik

Enjoy
Tap to rate this tab
# A B C D E F G H I J K L M N O P Q R S T U V W X Y Z