Song name
# A B C D E F G H I J K L M N O P Q R S T U V W X Y Z

Witchcraft - The Snake tab

Hello!

Here is another great song from Witchcraft. One of my personal faveourties of their 
songs. It is a doomy rock song in the vein of Black Sabbath and Pentagram!
This time it is one of the slower and heavier ones.

The Snake
Witchcraft
Witchcraft (2004)
Words & Music - Magnus Pelander

Tabbed by Mads Yde aka. Ridder Lugtepik

Intro:
E-------------|-------------|-----|
B-------------|-------------|-----|
G-------------|-------------|-----|
D-------------|-------------|-----|
A-4-4-4-4-4-4-|-6-6-6-7-7-7-|-6---|
E-2-2-2-2-2-2-|-4-4-4-5-5-5-|-4---|


Verse Riff:
E-------------------|
B-------------------|
G---------9---------|
D-4-4-6-7-9--11-11--|
A-4-4-6-7-7--11-11--|
E-2-2-4-5----9--9---|


Chorus Riff:
E---------|--------|
B---------|--------|
G---------|--------|
D-9-9-9-4-|-7--4---|
A-9-9-9-4-|-7--4---|
E-7-7-7-2-|-5--2---|


Riff 3:
E------------------|----------------------|
B------------------|----------------------|
G------------------|----------------------|
D------------------|----------------------|
A----------------9-|----------------------|
E-7-7-7-9-9-9-10---|-7-7-7-9-9-9-10-9-5-5-|
                                      *only one A (E-5) the last time

Riff 3 Harmony:
E----------------------|--------------------------|
B----------------------|--------------------------|
G-------------------11-|--------------------------|
D-9-9-9-11-11-11-12----|-9-9-9-11-11-11-12-11-7-7-|
A----------------------|--------------------------|
E----------------------|--------------------------|
                                              *only one A (D-7) the last time

Bridge:
E--------------|------------|---------------|--------------|--------------|
B--------------|------------|---------------|--------------|--------------|
G-9-----12--7--|-9-9-7/9--9-|-7/9-12-9-7-9--|-9-----12--7--|-9-8-7-6-5-4--|
D-9--9--12--7--|-9-9-7/9--9-|-7/9-12-9-7-9--|-9--9--12--7--|-9-8-7-6-5-4--|
A-7--9--10--5--|-7-7-5/7--7-|-5/7-10-7-5-7--|-7--9--10--5--|-7-6-5-4-3-2--|
E----7---------|------------|---------------|----7---------|--------------|


Outro:
E--------------------|
B--------------------|
G--------------------|
D--------4-----------|
A-4-3-2--4-----------|
E--------2-----------|


Song structure:
Intro x1
Verse Riff x4
Chorus Riff x1
Verse Riff x4
Chorus Riff x2
Riff 3 without harmonization x2
Riff 3 with harmonization x2
Bridge x1
Verse Riff x4
Chorus Riff x2
Outro x1
Tap to rate this tab
 
# A B C D E F G H I J K L M N O P Q R S T U V W X Y Z