Song name
# A B C D E F G H I J K L M N O P Q R S T U V W X Y Z

Witchcraft - Witchcraft tab

Well! Hello my fanatics!

A lot of people have seemed to acknowledged my tabs. Thanks for every bit of feedback.
It seems that a lot of people are not what they seem, but in fact these people are into 
Witchcraft!
So here is another song from the infamous Witchcraft songbook! Which has been requested
and I myself have been playing for quite a while and I feel it is time to share it with
you guys!
So play it loud and chant the infernal one's name as you get deeper into the Witchcraft!

Witchcraft
Witchcraft
Witchcraft 2004
Words & Music: Magnus Pelander

As tabbed by Mads Yde

Note, I've spent a lot time trying to the harmonies out, but this is the best I can do.
Hope it suits you all.

Intro:
E--------------------------|
B--------------------------|
G--------------------------|
D--------------------------| x 4
A-5h7-7-7---------5h7-7--7-|
E---------5h7-7-7----------|

Riff 1:
E---------------------------------|
B---------------------------------|
G-14h16p14--12h14p12--------------|
D---------------------0-14--14----|
A---------------------------------|
E---------------------------------|

E---------------------------------|
B--------------------------12-12--|
G-14h16p14--12h14p12--------------|
D---------------------0-14--------|
A---------------------------------|
E---------------------------------|

E-----------------------------|
B-----------------------------|
G-14h16p14--12h14p1-----------|
D---------------------0-14----|
A-----------------------------|
E-----------------------------|
  *harmonized

Verse:
E------------------------------|
B------------------------------|
G------------------------------|
D-2--22---2--22---2--22-10--9--| x 6
A-2--22---2--22---2--22-10--9--|
E-0--00-0-0--00-0-0--00-8---7--|

E-------------------------------|
E-------------------------------|
B-------------------------------|
G-2--22---2--22---2--22---------| x 2
D-2--22---2--22---2--22-10---9--|
A-0--00---0--00---0--00-10---9--|
E-------0-------0-------8----7--|

E------------------------------|
B------------------------------|
G------------------------------|
D-2--22---2--22---2--22-10--9--| x 2
A-2--22---2--22---2--22-10--9--|
E-0--00-0-0--00-0-0--00-8---7--|

Riff 2:
E---------------------|-----------------------------|
B-10---10---10---10---|----13----13-12h13p12h13p12--|
G----9----9----9----9-|-12----12--------------------|
D---------------------|-----------------------------| x 1
A---------------------|-----------------------------|
E---------------------|-----------------------------|
  ^ this riff is also harmonized

Alt. Riff 2:
E-----------------|-----------------|
B-----------------|-----------------|
G-----------------|-----------------|
D-7-7-7-7-7-7-7-7-|-10-10-10-10-9---|
A-7-7-7-7-7-7-7-7-|-10-10-10-10-9---|
E-5-5-5-5-5-5-5-5-|-8--8--8--8--7---|
 *this is what they play live

Riff 1:
E---------------------------------|
B---------------------------------|
G-14h16p14--12h14p12--------------|
D---------------------0-14--14----|
A---------------------------------|
E---------------------------------|

E---------------------------------|
B--------------------------12-12--|
G-14h16p14--12h14p12--------------|
D---------------------0-14--------|
A---------------------------------|
E---------------------------------|

E-----------------------------|
B-----------------------------|
G-14h16p14--12h14p1-----------|
D---------------------0-14----|
A-----------------------------|
E-----------------------------|
  *harmonized

Verse:
E------------------------------|
B------------------------------|
G------------------------------|
D-2--22---2--22---2--22-10--9--| x 6
A-2--22---2--22---2--22-10--9--|
E-0--00-0-0--00-0-0--00-8---7--|

E-------------------------------|
E-------------------------------|
B-------------------------------|
G-2--22---2--22---2--22---------| x 2
D-2--22---2--22---2--22-10---9--|
A-0--00---0--00---0--00-10---9--|
E-------0-------0-------8----7--|

E------------------------------|
B------------------------------|
G------------------------------|
D-2--22---2--22---2--22-10--9--| x 2
A-2--22---2--22---2--22-10--9--|
E-0--00-0-0--00-0-0--00-8---7--|

Riff 2:
E---------------------|-----------------------------|
B-10---10---10---10---|----13----13-12h13p12h13p12--|
G----9----9----9----9-|-12----12--------------------|
D---------------------|-----------------------------| x 1
A---------------------|-----------------------------|
E---------------------|-----------------------------|
  ^ this riff is also harmonized

Alt. Riff 2:
E-----------------|-----------------|
B-----------------|-----------------|
G-----------------|-----------------|
D-7-7-7-7-7-7-7-7-|-10-10-10-10-9---|
A-7-7-7-7-7-7-7-7-|-10-10-10-10-9---|
E-5-5-5-5-5-5-5-5-|-8--8--8--8--7---|
 *this is what they play live

Back to the intro:
E--------------------------|
B--------------------------|
G--------------------------|
D--------------------------| x 4
A-5h7-7-7---------5h7-7--7-|
E---------5h7-7-7----------|
  *don't play the last note the 4th time, instead play the riff below (bridge)

Bridge:
E------------------------|
B------------------------|
G------------------------|  x I'm too lazy to count...
D------------------------|
A-2------5--7-----10--9--|
E-0------3--5-----8---7--|

Riff 3:
E-----------------|-----------------|
B---------3p1---1-|-----------------|
G-----2p0-----2---|-----2p0-----0---|
D-0-0-------------|-0-0-----0-0---3-| x 4
A-----------------|-----------------|
E-----------------|-----------------|

Riff 4:
E---------------------|------------------|
B-------10------------|------------------|
G----------12-10-9----|-12-10-9----------|
D----12------------12-|-----------10-----|
A---------------------|--------------12--|
E-10------------------|------------------|
                                   ^ slide this one if you like

Backing for solos:
E-------------------------|-------------------------|
B-------------------------|-------------------------|
G-------------------------|-------------------------|
D-12-12-12-12-12-12-12-12-|-10-10-10-10-10-10-10-10-|
A-12-12-12-12-12-12-12-12-|-10-10-10-10-10-10-10-10-|
E-10-10-10-10-10-10-10-10-|-8--8--8--8--8--8--8--8--|
  Dm                        C(major)

Harmony:
Guitar 1
E----------10-----------13-|----------10---------------|
B-10h13p10-----10h13p10----|-10h13p10-----10h13p10-10--|
G--------------------------|---------------------------|
D--------------------------|---------------------------| x2
A--------------------------|---------------------------|
E--------------------------|---------------------------|

E--------------------------|---------------------------|
B----------10-----------13-|----------10---------------|
G-10h12p10-----10h12p10----|-10h12p10-----10h12p10-10--|
D--------------------------|---------------------------| x2
A--------------------------|---------------------------|
E--------------------------|---------------------------|

Guitar 2:
E---------------------|---------------------|
B---------------------|---------------------|
G--------7---------10-|--------7------------| x2
D-7h10p7----7h10p7----|-7h10p7----7h107-7--|
A---------------------|---------------------|
E---------------------|---------------------|

E---------------------|----------------------|
B---------------------|----------------------|
G---------------------|----------------------|
D--------7---------10-|--------7-------------|
A-8h10p8----8h10p8----|-8h10p8----8h10p8-8---|
E---------------------|----------------------|

End:
Guitar 1:
E-----------------|
B-----------------|
G----10-----------|
D-12----10-12-----|
A-----------------|
E-----------------|

Guitar 2:
E----------------|
B----------------|
G----------------|
D----------------|
A----8-----------|
E-10---8-10------|

Tabbed by Mads Yde
Tap to rate this tab
 
# A B C D E F G H I J K L M N O P Q R S T U V W X Y Z