Song name
# A B C D E F G H I J K L M N O P Q R S T U V W X Y Z

Witchcraft - Sorrow Evoker tab

E|---------------------------------------------------|
B|---------------------------------------------------|
G|------------------3---3p2--------------------------|
D|-------------5------------3-------5s7--7-----------|
A|--------5-------------------------3s5--5-----------|
E|----3----------------------------------------------|

E|---------------------------------------------------|
B|---------------------------------------------------|
G|------------------3--5s7s5---3-----5s7--5---5------|
D|-------------5---------------------3s5--3---3------|
A|--------5------------------------------------------|
E|----3----------------------------------------------|
Tap to rate this tab
 
# A B C D E F G H I J K L M N O P Q R S T U V W X Y Z